Type O Negative - Summer Breeze Chords & Tabs

 

Summer Breeze Chords & Tabs

Type O Negative Chords & Tabs

Version: 1 Type: Bass Tab 0 ratings
1 star 2 stars 3 stars 4 stars 5 stars
comments

Summer Breeze Bass Tab

   
-------------------------------------------------------------------------------
			     SUMMER BREEZE - Type O Negative
-------------------------------------------------------------------------------

Tabbed By : Brooks Stacks
e-mail: Brooks.stacks@sbcglobal.net

Tuning: E A D G

Intro
G|------------------------------------------------|
D|------------------------------------------------|
A|----------5--\--2--0----------------------------|
E|-2--/--5--------------5--4h5p4-2--0-1-2--0-1-2/-|

G|------------------------------------------------|
D|------------------------------------------------|
A|----------5--\--2--0----------------------------|
E|-2--/--5--------------5--4h5p4-2--0-1-2--2-1-0-5|
[ Tab from: http://www.guitartabs.cc/tabs/t/type_o_negative/summer_breeze_btab.html ]
Verse
G|----------------------------|
D|----------------------------|
A|----------------------------|
E|-5\2--2--4--4--3--3--5--5/--|

END verses with
G|----------------------|
D|----------------------|
A|----------------------|
E|-5/9\2-0-1-2--2-1-0-5-|

Chorus
G|---------------------------------------------------------------------------|
D|---------------------------------------------------------------------------|
A|---------------------------------------------------------------------------|
E|-2-222222-4-222222-5--0-1-2-0-1-2/--2-222222-4-222222-5-0-1-2--2-1-0-5-----|

Thats about it. I may send a corrected version, if this is way too off and i get too many 
complaints. Please, if you want to complain, do it, i love feedback.


| /  slide up
| \  slide down
| h  hammer-on
| p  pull-off
| ~  vibrato
| +  harmonic
| x  Mute note
===============================================================================
Comments