Type O Negative - Pyretta Blaze Chords & Tabs

 

Pyretta Blaze Chords & Tabs

Type O Negative Chords & Tabs

Version: 3 Type: Tab 0 ratings
1 star 2 stars 3 stars 4 stars 5 stars
comments

Pyretta Blaze Tab

   
Pyretta Blaze by Type O Negative :
Transcribed by Ruben Burton  Morbidangel777@web.de
Hi guys !!! I m a Metal Guitarist and love Type O , this is a true tabbed account of 
Blaze . I learned it the hard way . Enjoy !!
Type O Tuning , B-E-A-D-G-B ..... Low 2 High . Use Heavy Distortion ,only A  little Mid 
and lots of Chorus to get their sound .

INTRO : MAIN RIFF 3X

E--------------------------------------------------------------------------------|
B--------------------------------------------------------------------------------|
G--------------------------------------------------------------------------------|
D-----------------------4-----------4------------6----6----6----6-----6----------|
A-----------2-3-4-5-6----6-5-4-2---trill-2-4------6-----5----4----2-----4-shake--|
E ---2-3-4-----------------------------------------------------------------------|


MAIN VERSE :
Beautiful yet dangerous ...
MAIN VERSE : 2X

E---------------------------------------------------------------------------|
B---------------------------------------------------------------------------|
G-4-----xxxx--------------6-------------------------------------------------|
D-4-----xxxx-----4-4-----6--------------------------------------------------|
A-2-----xxxx-----4-4-----4--------------------------------------------------|
E -----------------2-2---------------2-2-2-2-2-2-2-2-bend every first note--|
                                                         -     -      -     -

BRIDGE :
Like a moth caught to a flame ...
E-------------------------------------------------------------------------------------|
B-------------------------------------------------------------------------------------|
G---4-------------4--------6-------------6------9-------------9------11-----------11--|
D---4-------------4--------6-------------6------9-------------9------11-----------11--|
A---2-2-2-2-2-2-2-slide---4-4-4-4-4-4-4-slide-7-7-7-7-7-7-7-slide-9-9-9-9-9-9-9slide--|
E ------------------------------------------------------------------------------------|

MAIN VERSE : 2X

E----------------------------|
B----------------------------|
G-4-----xxxx--------------6--|
D-4-----xxxx-----4-4-----6---|
A-2-----xxxx-----4-4-----4---|
E -----------------2-2-------|


INTRO : MAIN RIFF 2X
E--------------------------------------------------------------------------------|
B--------------------------------------------------------------------------------|
G--------------------------------------------------------------------------------|
D-----------------------4-----------4------------6----6----6----6-----6----------|
A-----------2-3-4-5-6----6-5-4-2---trill-2-4------6-----5----4----2-----4-shake--|
E ---2-3-4-----------------------------------------------------------------------|


MAIN VERSE : 2X

E---------------------------------------------------------------------------|
B---------------------------------------------------------------------------|
G-4-----xxxx--------------6-------------------------------------------------|
D-4-----xxxx-----4-4-----6--------------------------------------------------|
A-2-----xxxx-----4-4-----4--------------------------------------------------|
E -----------------2-2---------------2-2-2-2-2-2-2-2-bend every first note--|
                                                         -     -      -     -

BRIDGE :
[ Tab from: http://www.guitartabs.cc/tabs/t/type_o_negative/pyretta_blaze_tab_ver_3.html ]
E-------------------------------------------------------------------------------------|
B-------------------------------------------------------------------------------------|
G---4-------------4--------6-------------6------9-------------9------11-----------11--|
D---4-------------4--------6-------------6------9-------------9------11-----------11--|
A---2-2-2-2-2-2-2-slide---4-4-4-4-4-4-4-slide-7-7-7-7-7-7-7-slide-9-9-9-9-9-9-9slide--|
E ------------------------------------------------------------------------------------|

Pre Chorus :

E----------------------------|
B----------------------------|
G-4-----xxxx--------------6--|
D-4-----xxxx-----4-4-----6---|
A-2-----xxxx-----4-4-----4---|
E -----------------2-2-------|


Chorus : 2X
You are the first ...
E-----------------------------------------------------------------------------|
B-----------------------------------------------------------------------------|
G--8-8-8------10-10--10------6-6-6-----8-8-8----10-10-10----6-6-6----8-8-8----|
D--8-8-8------10-10--10------6-6-6-----8-8-8----10-10-10----6-6-6----8-8-8----|
A--6-6-6------8---8---8-------4-4-4-----6-6-6----8---8---8----4-4-4----6-6-6--|
E-----------------------------------------------------------------------------|


INTRO : MAIN RIFF 2X
E--------------------------------------------------------------------------------|
B--------------------------------------------------------------------------------|
G--------------------------------------------------------------------------------|
D-----------------------4-----------4------------6----6----6----6-----6----------|
A-----------2-3-4-5-6----6-5-4-2---trill-2-4------6-----5----4----2-----4-shake--|
E ---2-3-4-----------------------------------------------------------------------|


2nd Bridge : Solo Section 4X

E-------------------------------------------------------|
B-------------------------------------------------------|
G--66666-6--4-------------------------------------------|
D--66666-6--4----66666-5-4-3------2222--434---6-4-2-----|
A--44444-4--2----66666-5-4-3------2222--434---6-4-2-----|
E ------------------44444-3-2-1------0000--212---4-2-0--|


MAIN VERSE : 2X
Speak the words I long to hear ...
E---------------------------------------------------------------------------|
B---------------------------------------------------------------------------|
G-4-----xxxx--------------6-------------------------------------------------|
D-4-----xxxx-----4-4-----6--------------------------------------------------|
A-2-----xxxx-----4-4-----4--------------------------------------------------|
E -----------------2-2---------------2-2-2-2-2-2-2-2-bend every first note--|
                                                         -     -      -     -

BRIDGE :

E-------------------------------------------------------------------------------------|
B-------------------------------------------------------------------------------------|
G---4-------------4--------6-------------6------9-------------9------11-----------11--|
D---4-------------4--------6-------------6------9-------------9------11-----------11--|
A---2-2-2-2-2-2-2-slide---4-4-4-4-4-4-4-slide-7-7-7-7-7-7-7-slide-9-9-9-9-9-9-9slide--|
E ------------------------------------------------------------------------------------|

Pre Chorus :

E----------------------------|
B----------------------------|
G-4-----xxxx--------------6--|
D-4-----xxxx-----4-4-----6---|
A-2-----xxxx-----4-4-----4---|
E -----------------2-2-------|


Chorus : 6X
You are the first ...
E-----------------------------------------------------------------------------|
B-----------------------------------------------------------------------------|
G--8-8-8------10-10--10------6-6-6-----8-8-8----10-10-10----6-6-6----8-8-8----|
D--8-8-8------10-10--10------6-6-6-----8-8-8----10-10-10----6-6-6----8-8-8----|
A--6-6-6------8---8---8-------4-4-4-----6-6-6----8---8---8----4-4-4----6-6-6--|
E-----------------------------------------------------------------------------|
Comments