Type O Negative - Kill All The White People Chords & Tabs

 

Kill All The White People Chords & Tabs

Type O Negative Chords & Tabs

Version: 1 Type: Tab 0 ratings
1 star 2 stars 3 stars 4 stars 5 stars
comments

Kill All The White People Tab

   
KILL ALL THE WHITE PEOPLE by TYPE O NEGATIVE
(from Bloody Kisses)

tuning is normal(e b g D A e)

Intro riff:
{bass w/distortion}
|--------------------------------
|--------------------------------
|--3----3--1----1---3----3--4^^--
|----3-------1--------3---------- 

|--------------------------------------
|--------------------------------------
|--3----3--1----1---4--3--2---4--3--2--
|----3-------1-------------------------
 
Riff1:
{guitar}
|------------------------------------------
|------------------------------------------
|--7"-------5"--------7"------8"-----------
|--7"-------5"--------7"------8"-----------
|--5"-------3"--------5'------6"-----------
|--5"-------3"--------5"------6"-----------

Riff2:
|----------------------------------------
|----------------------------------------
|--7"-------5"--------8--7--6---8--7--6--
|--7"-------5"--------8--7--6---8--7--6--
|--5"-------3"--------6--5--4---6--5--4--
|--5"-------3"--------6--5--4---6--5--4--

Riff3:
|---------------------------
|---------------------------
|---------------------------
|--7-----8-----9-----10-----
|--7-----8-----9-----10-----
|--5-----6-----7-----8------

Solo:
|---------------------------------------------------------------
|---------------------------------------------------------------
|------------------------------------------------------x--x--x--
|--2------2--0--2---5^---------2--2---2--0--2---5^-----x--x--x--
|-----------------------1--1-----------------------1---x--x--x--
|------------------------------------------------------x--x--x--
[ Tab from: http://www.guitartabs.cc/tabs/t/type_o_negative/kill_all_the_white_people_tab.html ]
|---------------------------------------------------------------
|---------------------------------------------------------------
|------------------------------------------------------x--x--x--
|--2------2--0--2---5^---------2--2---2--0--2---5^-----x--x--x--
|-----------------------1--1-----------------------1---x--x--x--
|------------------------------------------------------x--x--x--

|---------------------------------------------------------------
|---------------------------------------------------------------
|---------------------------------------------------------------
|--7------7--5--7---10^--------7--7---7--5--7---7^--------------
|-----------------------6--6-----------------------6---6--6--6--
|---------------------------------------------------------------

Riff4:
|---------------------------------------------------------------
|---------------------------------------------------------------
|------------------------------------5-------------6--7---------
|--5------6------5------8------5-----5------5------6--7------6--
|--5------6------5------8------5-----3------5------4--5------6--
|--3------4------3------6------3------------3----------------4--

|---------------------------------------------------------------
|---------------------------------------------------------------
|-----------------------5-------------6-------------------------
|--5------8------5------5------5------6-------------------------
|--5------8------5------3------5------4-------------------------
|--3------6------3-------------3--------------------------------
{make rather long pauses between these chords/strikes}


"- means to play quickly this chord for bunch of times(get the rhythm by yourself)
^- means to bend (more ^ more bending)


That's all I have about this song for current time... 
I don't exclude any mistakes in this tablature... 



Transcribed by Dmitry Buloichik(dimich@va.ttu.ee)
Comments