Type O Negative - Hey Pete Chords & Tabs

 

Hey Pete Chords & Tabs

Type O Negative Chords & Tabs

Version: 1 Type: Tab 0 ratings
1 star 2 stars 3 stars 4 stars 5 stars
comments

Hey Pete Tab

   
"Hey Pete"
>From Origin of the Feces 
Tabbed by Raza Mahmood 
Tune guitar 2.5.steps below standard 
Low to high: B, E, A, D, F#, B 
 
 
b ||-------------------------------------------|-----------------|| 
F#||-------------------------------------------|-----------------|| 
D ||-------------------------------------------|-----------------|| 
A ||--9-7---------9--9--12-9-9-12-9-9-11--9--9-|-----7-----7-----|| 
E ||------7h9p7-5-9--9--12-9-9-12-9-9-11--9--9-|-7-9---7-9---9-7-|| 
B ||--------------7--7--10-7-7-10-7-7--9--7--7-|-----------------|| 
 
    "Hey Peter, where you goin' with that ax in your hand?" 
    "Hey Peter, where you goin' with that ax in your hand?" 
    "I'm gonna kill my baby, cuz I caught her screwin' round with  
                                                  some other man." 
    "I'm gonna kill my baby, cuz I caught her fuckin' round with 
                                                  some other man." 
||--------------------------------------|| 
||--------------------------------------|| 
||--------------------------------------|| 
||-------7--7--------9--9---------------|| 
||-5--5--5--5--7--7--7--7--9----9-9--X\-|| 
||-3--3--------5--5--------7----5-7--X\-|| 
 
    "Hey Peter, you know I heard you cut your woman down." 
    "Hey Peter, you know I heard you cut your woman down, cut her  
                                              down to the ground." 
    "Last night I killed my baby, caught her screwin round with  
                                               every guy in town." 
    "Last night I killed my baby, caught her screwin round all  
                                                  over this town." 
    pm..|  pm..|  pm..|  pm..|             pm.| 
||----------------------------------------------------|| 
||----------------------------------------------------|| 
||----------------------------------------------------|| 
||--------7--7-7--------9--9-9------------------------|| 
||-5--5-5-5--5-5-7--7-7-7--7-7-9--9--7--7/9-9-9-9--X\-|| 
||-3--3-3--------5--5-5--------7--7--5--5/7-7-7-7--X\-|| 
 
||-------------------------------------------|| 
||-------------------------------------------|| 
||-------------------------------------------|| 
||-5---------4-5-6-7---------6-7-9--9--9-----|| 
||---2-3-4-5---------4-5-6-7--------9--9--X\-|| 
||----------------------------------7--7--X\-|| 
   
Guitar Solo 
                 (^=.5 step bend)               (^=1 step bend) 
||---------------------14^-14--14-12---------------------|| 
||-----------------------------------14-13-12----10-10^--|| 
||-/12--12-11--11/14--------------------------11---------|| 
||-------------------------------------------------------|| 
||-------------------------------------------------------|| 
||-------------------------------------------------------|| 
 
  "I'll take that D train, I'll take down to Brighton Beach." 
  "I'll take that D train, I'll take down to Brighton Beach, I'll 
                                         send my baby to heaven." 
    pm..|  pm..|  pm..|  pm..|             pm.| 
||----------------------------------------------------|| 
||----------------------------------------------------|| 
||----------------------------------------------------|| 
||--------7--7-7--------9--9-9------------------------|| 
||-5--5-5-5--5-5-7--7-7-7--7-7-9--9--7--7/9-9-9-9--X\-|| 
||-3--3-3--------5--5-5--------7--7--5--5/7-7-7-7--X\-|| 
 
||-------------------------------------------|| 
||-------------------------------------------|| 
||-------------------------------------------|| 
||-5---------4-5-6-7---------6-7-9--9--9-----|| 
||---2-3-4-5---------4-5-6-7--------9--9--X\-||
||----------------------------------7--7--X\-||
[ Tab from: http://www.guitartabs.cc/tabs/t/type_o_negative/hey_pete_tab.html ]
Comments