Type O Negative - Green Man Chords & Tabs

 

Green Man Chords & Tabs

Type O Negative Chords & Tabs

Version: 1 Type: Tab 0 ratings
1 star 2 stars 3 stars 4 stars 5 stars
comments

Green Man Tab

   
******************************************************
**        "Green Man" - Type O Negative             **
**                                                  **
**      Tabbed by Gerard van de Lagemaat            **
******************************************************

Type-O tuning from low to high (B,E,A,D,F#,B)


[Intro]
{I think this stuff is 12-string acoustic}
|-----------------13----14----16------------------------------12--|
|-----14----14------------------------12----12----11----12--------|
|---13----13----13----13----13------11----11----11----11----11----|
|-11----11----11----11----11-------9-----9-----9-----8-----8------|
|-----------------------------------------------------------------|
|-----------------------------------------------------------------| | 
                                                               |
|------------------------------4-------------------------------0--|
|------------------6-----7----------------------------------------|
|------6-----6-------------------------4-----4-----3-----4--------|
|----6-----6-----6-----6-----6-------4-----4-----4-----4-----4----|
|--4-----4-----4-----4-----4-------2-----2-----2-----1------------|
|----------------------------------------------------------2------|

[ Tab from: http://www.guitartabs.cc/tabs/t/type_o_negative/green_man_tab.html ]
{ in the 2nd bar below: listen to the song for which chord(s) of
  these are used after the first bar. }
|------------------------------||-------------------<7>--2--------|
|------------------------------||--------------0---------2---0----|
|------------------------------||-------11-----4---------4---4----|
|--6-----------------------4---||--4----11-----6-----8---4---4----|
|--4-----------------------1---||--2-----9----<4>----7---2---4-x\\|
|------------------------------||-------<9>---<7>----0-------2-x\\|


{ the next 2 bars are my favorite, IMHO I think it's one of the
  heaviest type-o (and music in general) riffs.

  the top 3 strings are actually drowns by keyboard and voice.
}
|--4-------4--------4--------4--|--4--------4---------4--------4--|
|--2-------2--------2--------0--|--2--------2---------2--------0--|
|--2-------1--------0--------4--|--2--------1---------0--------4--|
|--4-------4--------2--------4--|--4--------3---------2--------4--|
|--2-------1--------0--------2--|--4--------4---------2--------4--|
|-(2)-----(1)------(0)------(2)-|--2--------1---------0--------2--|
|"Winter's..............purple?"|"Life.....................circle"|


"solo"
|                                   1.2.|       3.|             4.|
|/16-16-16p14-14-14-14\13-13-13---------|---------|------13-14----|
|-------------------------------14-12-14|---16-14-|---16-------14-|
|---------------------------------------|13-------|13-------------|
|---------------------------------------|---------|---------------|
|---------------------------------------|---------|---------------|
|---------------------------------------|---------|---------------|



Comments