Type O Negative - Blood And Fire Chords & Tabs

 

Blood And Fire Chords & Tabs

Type O Negative Chords & Tabs

Version: 3 Type: Tab 0 ratings
1 star 2 stars 3 stars 4 stars 5 stars
comments

Blood And Fire Tab

Blood and Fire By: Type O Negative
Tabbed by AssMonkey6309
One of the best typeo songs you have to listen to it for timing though.


Intro riff 1
|---------------------------------------|
|-----------------------8---------------|
|-----2----------5------7------7--------|
|-----2----------5------5------7--------|
|-----0--------0-3----0-5----0-5--------|
|-0-3-----------------------------------|
  . .          .      .      .

Intro riff 2
|----------------------------------------------|
|-----------------------8----------------------|
|-----2----------5------7------7---------------|
|-----2----------5------5------7----5/7-7\5/7--|
|-----0--------0-3----0-5----0-5----3/5-5\3/5--|
|-0-3------------------------------------------|
  . .          .      .      .

Chorus riff
|---------------------------------------------|
|---------------------------------------------|
|-----2----------5-------------7--------------|
|-----2----------5------5------7----5--5-5-4--|
|-----0--------0-3----0-5----0-5----3--3-3-2--|
|-0-3-------------------3---------------------|
  . .          .      .      .

|----------------------------------------------|
|----------------------------------------------|
|-----2----------5-------------7---------------|
|-----2----------5------5------7----5/7-7\5/7--|
|-----0--------0-3----0-5----0-5----3/5-5\3/5--|
|-0-3-------------------3----------------------|
  . .          .      .      .

Verse riff
|-----------------------------------------------------------|
|-----------------------------------------------------------|
|-----2--2-2-2-2-2-2-5--5-5--------7--7-7-7-7-7-7-----------|
|-----2--2-2-2-2-2-2-5--5-5-5--5-5-7--7-7-7-7-7-7-5--5-5-4--|
|-----0--0-0-0-0-0-0-3--3-3-5--5-5-5--5-5-5-5-5-5-3--3-3-2--|
|-0-3-----------------------3--3-3--------------------------|
  . .    . . . . . .    . .    . .    . . . . . .

Verse riff 2
|-----------------------------------------------------------|
|-----------------------------------------------------------|
|-----2--2-2-2-2-2-2-5--5-5--------7--7-7-7-7-7-7-----------|
|-----2--2-2-2-2-2-2-5--5-5-5--5-5-7--7-7-7-7-7-7-5/7-7\5/7-|
|-----0--0-0-0-0-0-0-3--3-3-5--5-5-5--5-5-5-5-5-5-3/5-5\3/5-|
|-0-3-----------------------3--3-3--------------------------|
  . .    . . . . . .    . .    . .    . . . . . . 

Bridge riff (You don't know what I've been through...)
|------------------------------------------------------------|
|--------------------------13------9-------------------------|
|-----2----5----7----10----12--10--8----5----7---------------|
|-----2----5----7----10----10--10--7----5----7----5/7-7\5/7--|
|-----0----3----5-----8----10---8--7----3----5----3/5-5\3/5--|
|-0-3--------------------------------------------------------|
  . . 



|-------------------------------------------------------------------------|
|-12---12---12---12---10---10---10---10---7---7-5---3---5---5---5---5---5-|
|-------------------------------------------------------------------------|
|----9----9----9----9----7----7----7----7---4-----2---0---2---2---2---2---|
|-------------------------------------------------------------------------|
|-------------------------------------------------------------------------|


|---------------------------------------------------------------|
|-12---12---12---12---10---10---10---10---7---7-5---3---5-------|
|-------------------------------------------------------4-------|
|----9----9----9----9----7----7----7----7---4-----2---0-2-------|
|---------------------------------------------------------------|
|---------------------------------------------------------------|
[ Tab from: http://www.guitartabs.cc/tabs/t/type_o_negative/blood_and_fire_tab_ver_3.html ]
Solo 1
|-------------------------------------------------------------------------|
|-10~~9------10~~9----------------------------10~~9------10~~9------------|
|-------9-7~~------9-7~~7-9-4-7-2-4-0-2-------------9-7~~------9-7~~7b9~~-|
|---------------------------------------2b3p0-----------------------------|
|-------------------------------------------------------------------------|
|-------------------------------------------------------------------------|

|-17~~16h17p16--------17~~16----------------------------------------|
|--------------17-15---------17-15--15-17-12-15-10-12-8-10----------|
|----------------------------------------------------------9b10r9-7-|
|-------------------------------------------------------------------|
|-------------------------------------------------------------------|
|-------------------------------------------------------------------|

|-17~~16h17p16--------17~~16-~--------------------------|
|--------------17-15---------17-15--15b17~~~~~~*17------|
|-------------------------------------------------------|
|-------------------------------------------------------|
|-------------------------------------------------------|
|-------------------------------------------------------|

Background riff 1
|----------------------------------------------------------|
|----------------------------------------------------------|
|---------------------------7--9-9--9-7--7--9-9-7----------|
|-7--9-9--9-7--7--9-9--9-7--5--7-7--7-5--5--7-7-5-7b9r7-5--|
|-5--7-7--7-5--5--7-7--7-5---------------------------------|
|----------------------------------------------------------|

|------------------------------------------------------|
|------------------------------------------------------|
|-------------------------------------------------7----|
|-7--9-9--9-7--7--9-9--9-7--5--5-5-5-5-4-2-7--7-7-5-7--|
|-5--7-7--7-5--5--7-7--7-5--3--3-3-3-3-2-0-5--5-5---5--|
|------------------------------------------------------|
                               . . . . . .

Acoustic bit 2
 1st, 2nd, 3rd & 4th time
|------------------------------------------------------------------|
|------------------------------------------------------------------|
|-----2-----2---------0------0---------0-----0---------0-------0---|
|---2-----2---2-----0------0---0-----4-----4---4-----0---0---4---4-|
|-0-----0-------0-3------3-------3-5-----5-------5-3-------5-------|
|------------------------------------------------------------------|
                  ^ 1st time start here
 5th time
|------------------------------------------------------------------|
|------------------------------------------------------6-------8---|
|-----2-----2---------0------0---------0-----0-------5---5---7---7-|
|---2-----2---2-----0------0---0-----4-----4---4---3-------5-------|
|-0-----0-------0-3------3-------3-5-----5-------5-----------------|
|------------------------------------------------------------------|

 6th time
|-------------------------------------------------|
|-------------------------------3-----------------|
|-----2-----2---------0-----0---2-----------------|
|---2-----2---2-----0-----0---0-0------5/7-7\5/7--|
|-0-----0-------0-3-----3-------0------3/5-5\3/5--|
|-------------------------------------------------|

Solo 2
|----------------------------------------------------------15~~~---------|
|------------15~~~------17----------------------15~~~--------------------|
|------14---------14-12----12~~~~~~-------14---------14-12------12~~~~~~-|
|-12~~~---12------------------------12~~~----12--------------------------|
|------------------------------------------------------------------------|
|------------------------------------------------------------------------|

Background riff 2
|---------------------------------------------|
|---------------------------------------------|
|-----2----------5-------------7--------------|
|-----2----------5------5------7----5--5-5-4--|
|-----0--------0-3----0-5----0-5----3--3-3-2--|
|-0-3-------------------3---------------------|
  . .          .      .      .

Outro
|----------|
|----------|
|----------|
|-----7\---|
|-----7\---|
|-0-3-5\---|
  . .
Comments