Type O Negative - Blood And Fire Chords & Tabs

 

Blood And Fire Chords & Tabs

Type O Negative Chords & Tabs

Version: 1 Type: Tab 0 ratings
1 star 2 stars 3 stars 4 stars 5 stars
comments

Blood And Fire Tab

Just Fixing the one i added a millenium ago lol
sorry if anyone couldn't read it my bad hopefully it works this time
P.S. The intro is actually done on keyboard but you can still play it on 
       guitar  also note that this version is from the Mortal Kombat 
       soundtrack. just listen to the song for the melodies
as well as I figured this out by ear so a bunch of parts are wrong but they'll
suffice

enjoy

       Blood and Fire -- Type O Negative       Tabbed by:  Jon Garland

   keyboard intro
e----------------------------------------------------------------------------
b----------------------------------------------------------------------------
g----------------------------------------------------------------------------
D----------------------------------------------------------------------------
A--2--5--2---5---2---7-------------------------------------------------------
E--0--3--0---3---0---5-------------------------------------------------------
  pm  pm

   
Intro
e----------------------------------------------------------------------------
b----------------------------------------------------------------------------
g----------------------------------------------------------------------------
D---------------------7/2-p.s------------------------------------------------
A--2--5--2---5---2----5/0-----2--5--2---5---2------5-7-7-5-7-5-4-2-----------
E--0--3--0---3---0------------0--3--0---3---0------3-5-5-3-5-3-2-0-----------
  pm  pm                                           Fig.2


      Verses
e----------------------------------------------------------------------------
b----------------------------------------------------------------------------
g----------------------------------------------------------------------------
D-------------------------------------------------5-----4--------------------
A--2-2-2-2-2-2--5--5-5--2--2-2--7--7-7-7-7-7-7--5---5-4---4--2---------------
E--0-0-0-0-0-0--3--3-3--0--0-0--5--5-5-5-5-5-5--3-----2------0--------------
  (    P.M    )   (P.M)   (P.M)   (    P.M    )

            Play 3x on 4th time end with Fig.2

[ Tab from: http://www.guitartabs.cc/tabs/t/type_o_negative/blood_and_fire_tab.html ]
           Pre-Chorus
e----------------------------------------------------------------------------
b----------------------------------------------------------------------------
g----------------5-----------------------------------------------------------
D-------2--4--5--3-----------------------------------------------------------
A-5--7--0--2--3-----5--2--5--7--5--7--7--5--7--5--4--2-----------------------
E-3--5--------------3--0--3--5--3--5--5--3--5--3--2--0-----------------------

        Chorus
e----------------------------------------------------------------------------
b----------------------------------------------------------------------------
g----------------------------------------------------------------------------
D----------------------------------------------------------------------------
A--2-2-2-2-2-2--5--5-5--2--2-2--7--7-7-7-7-7-7--5--5-5--4--4-4--2------------
E--0-0-0-0-0-0--3--3-3--0--0-0--5--5-5-5-5-5-5--3--3-3--2--2-2--0------------
  (    P.M    )   (P.M)   (P.M)   (    P.M    )   (P.M)   (P.M)
                Play 2x

   Lust eternal... I see your face... Parts
e----------------------------------------------------------------------------
b--5---5---5---5---5---5---5---5---------------------------------------------
g----5---5---5---5---5---5---5---5---5---5---3--1---3----3---3---3---3-------
D--------------------------------------5---3------1---3----3---3---3---3-----
A----------------------------------------------------------------------------
E----------------------------------------------------------------------------


                Solo
e---------------------------------------------12^-10---------12*--10---------
b----------------------------------------------------12--10-----------12--10--
g-9*---7------9*--7-----------------7*--9*--9--------------------------------
D--------9--7-------9-7---7-9--9--9------------------------------------------
A----------------------------------------------------------------------------
E---------------------------------------------------------------------------


e----------------------------------------------------------------------------
b--10--12--12---12---12------------------------------------------------------
g----------------------------------------------------------------------------
D----------------------------------------------------------------------------
A----------------------------------------------------------------------------
E----------------------------------------------------------------------------


Comments