Two Door Cinema Club - Kids Chords & Tabs

 

Kids Chords & Tabs

Two Door Cinema Club Chords & Tabs

Version: 1 Type: Bass Tab 0 ratings
1 star 2 stars 3 stars 4 stars 5 stars
comments

Kids Bass Tab

   
-------------------------------------------------------------------------------
                             KIDS - Two Door Cinema Club
-------------------------------------------------------------------------------
Tabbed by: Sonofclayton
E-mail: harry.ajbrennan@gmail.com
Tuning: Standard EADG

MAIN RIFF
G|---------------------------------------------------|
D|---------------------------------------------------|
A|-5.-5.-5.-5.-5.-5.-5.-----5.-5.-5.-5.-5.-5.-5.-----|
E|----------------------575----------------------575-|

G|---------------------------------------------------------------------|
D|---------------------------------------------------------------------|
A|-10.-10.-10.-10.-10.-10.-10.-10910-10.-10.-10.-10.-10.-10.-10.-12910-|
E|---------------------------------------------------------------------|

VERSE
G|-----------------------------------------|
D|-0~---4~-------------0~---4~-------------|
A|-----------2~---0~-------------2~---0~---|
E|-----------------------------------------|

G|-----------------------------------------------------|
D|-------------------------7----------0----------------|
A|-5.-5.-5.-5.7-9.-9.-9.-9.--2.-2.-2.---2-0.-0.-0.-2-4-|
E|-----------------------------------------------------|

G|-----------------------------------------------------|
D|-------------------------7----------0----------------|
A|-5.-5.-5.-5.7-9.-9.-9.-9.--2.-2.-2.---2-0~----2~/----|
E|-----------------------------------------------------|

CHORUS
G|---------------------------------------------------|
D|---------------------------------------------------|
A|-5.-5.-5.-5.-5.-5.-5.-----5.-5.-5.-5.-5.-5.-5.-----|
E|----------------------575----------------------575-|

G|---------------------------------------------------------------------|
D|---------------------------------------------------------------------|
A|-10.-10.-10.-10.-10.-10.-10.-10910-10.-10.-10.-10.-10.-10.-10.-12910-|
E|---------------------------------------------------------------------|

G|---------------------------------------------------|
D|---------------------------------------------------|
A|-5.-5.-5.-5.-5.-5.-5.-----5.-5.-5.-5.-5.-5.-5.-----|
E|----------------------575----------------------575-|

G|---------------------------------------------------------------------|
D|---------------------------------------------------------------------|
A|-10.-10.-10.-10.-10.-10.-10.-10910-10.-10.-10.-10.-10.-10.-10.-12910-|
E|---------------------------------------------------------------------|

VERSE
G|-----------------------------------------|
D|-0~---4~-------------0~---4~-------------|
A|-----------2~---0~-------------2~---0~---|
E|-----------------------------------------|

G|-----------------------------------------------------|
D|-------------------------7----------0----------------|
A|-5.-5.-5.-5.7-9.-9.-9.-9.--2.-2.-2.---2-0.-0.-0.-2-4-|
E|-----------------------------------------------------|
[ Tab from: http://www.guitartabs.cc/tabs/t/two_door_cinema_club/kids_btab.html ]
G|-----------------------------------------------------|
D|-------------------------7----------0----------------|
A|-5.-5.-5.-5.7-9.-9.-9.-9.--2.-2.-2.---2-0~----2~/----|
E|-----------------------------------------------------|

CHORUS
G|---------------------------------------------------|
D|---------------------------------------------------|
A|-5.-5.-5.-5.-5.-5.-5.-----5.-5.-5.-5.-5.-5.-5.-----|
E|----------------------575----------------------575-|

G|---------------------------------------------------------------------|
D|---------------------------------------------------------------------|
A|-10.-10.-10.-10.-10.-10.-10.-10910-10.-10.-10.-10.-10.-10.-10.-12910-|
E|---------------------------------------------------------------------|

G|---------------------------------------------------|
D|---------------------------------------------------|
A|-5.-5.-5.-5.-5.-5.-5.-----5.-5.-5.-5.-5.-5.-5.-----|
E|----------------------575----------------------575-|

G|---------------------------------------------------------------------|
D|---------------------------------------------------------------------|
A|-10.-10.-10.-10.-10.-10.-10.-10910-10.-10.-10.-10.-10.-10.-10.-12910-|
E|---------------------------------------------------------------------|

SOLO/OUTRO
G|-------------------------------------------------|
D|-12p10-12p10-12p10-12p10-12p10-12p10-12p10-12p10-|
A|-------------------------------------------------|
E|-------------------------------------------------|

G|-------------------------------------------------|
D|-12p10-12p10-12p10-12p10-12p10-12p10-12p10-12p10-|
A|-------------------------------------------------|
E|-------------------------------------------------|

G|-------------------------------------------------|
D|-12p10-12p10-12p10-12p10-12p10-12p10-12p10-12p10-|
A|-------------------------------------------------|
E|-------------------------------------------------|

G|-------------------------------------------------|
D|-12p10-12p10-12p10-12p10-12p10-12p10-12p10-12p10-|
A|-------------------------------------------------|
E|-------------------------------------------------|

G|-------------------------------------|
D|-------------------------------------|
A|-55555555-77777777-------------------|
E|-------------------77777777-55555555-|

G|-------------------------------------------------|
D|-------5h7---------7h9---------------------------|
A|-5-5-5-----5-7-7-7-----7-------7h9---------5h7---|
E|-------------------------7-7-7-----7-5-5-5-----5-|

G|-----------7-----------9-------------------------|
D|-------5h7---------7h9-------------9-----------7-|
A|-5-5-5-------7-7-7-------------7h9---------5h7---|
E|-------------------------7-7-7-------5-5-5-------|

G|-----------7-----------9-------------------------|
D|-------5h7---------7h9-------------9-----------7-|
A|-5-5-5-------7-7-7-------------7h9---------5h7---|
E|-------------------------7-7-7-------5-5-5-------|

G|-----------7-----------9-------------------------|
D|-------5h7---------7h9-------------9-----------7-|
A|-5-5-5-------7-7-7-------------7h9---------5h7---|
E|-------------------------7-7-7-------5-5-5-------|

G|---------------|
D|---------------|
A|-5-5-5--5-5-5/-|
E|---------------|
Comments