Two Door Cinema Club - Impatience Is A Virtue Chords & Tabs

 

Impatience Is A Virtue Chords & Tabs

Two Door Cinema Club Chords & Tabs

Version: 2 Type: Bass Tab 0 ratings
1 star 2 stars 3 stars 4 stars 5 stars
comments

Impatience Is A Virtue Bass Tab

Hi everyone! I'm TheRhymeBell and I've just made this tabs for TDCC. This song didn't 
had it so here it is. In my channel you will find a cover of Impatience is a Virtue:

http://www.youtube.com/user/therhymebell



Have fun!


Intro

--------------------------------|
--------------------------------|
--------------------------------|
--2---2---5---5---2---2---5---5-|


Chorus
----------------------------------------------|
----------------------------------------------|      x2
-----------------------77777--7---------22222-|
-222222--2---5555502-------------02-----------|


Verse
[ Tab from: http://www.guitartabs.cc/tabs/t/two_door_cinema_club/impatience_is_a_virtue_btab_ver_2.html ]
----------------------------------------6---6----------2---2-|
-------------------------9---9-7--7--77---7---4--4--44---4---|
----------0---0-7--7--77---7---------------------------------|    x4
-2--2--22---2------------------------------------------------|



Pre-Bridge

-------------------------|
-------------------------|
-7--7--7--7--------------|
---------------222--22---|


Bridge


-------------------------------------|
-------------------------------------|
------------------77777777-22222222--| x2
-22222222-5555555--------------------|


In order:

Intro
Chorus
Verse
Chorus
Verse
Pre-Bridge
Bridge
Chorus


Remeber to visit my channel for more help:
http://www.youtube.com/user/therhymebell
Comments