Two Door Cinema Club - I Can Talk Chords & Tabs

 

I Can Talk Chords & Tabs

Two Door Cinema Club Chords & Tabs

Version: 2 Type: Bass Tab 0 ratings
1 star 2 stars 3 stars 4 stars 5 stars
comments

I Can Talk Bass Tab

Artist: Two Door Cinema Club

Album: Tourist History

Song: I Can Talk


Intro

G||--------------------|----------------5---|
D||--------------------|--------------------|
A||----------------7-5-|-3----3----3--------|
E||-5----5----5--------|--------------------|

G||--------------------|----------------5---||
D||-3----3----3--------|-------------7----7-||  x2
A||-------------3--5-3-|-5----5----5--------||
E||--------------------|--------------------||


Verse

G||--------------------|-------------------------|
D||--------------------|-------------------------|
A||--------------------|-------------------------|
E||-5-5--5-5--5-5--5-5-|-5-5--5-5/--12-12--12-12-|

G||----------------------------|--------------------||
D||----------------------------|--------------------||  x2
A||----------------------------|--------------------||
E||-10-10--10-10--10-10--10-10-|-8-8--8-8----8----8-||


G||--------------------|---------------------|
D||--------------------|---------------------|
A||--------------------|--------7------------|
E||-5----5----5----5---|-5----5----5/---12---|

G||------------------------|----------------------|
D||------------------------|-------------10----10-|
A||------------------------|----------------------|
E||-10----10----10----10---|-8----8----8-----8----|

G||--------------------|---------------------|
D||--------------------|---------------------|
A||--------------------|---------------------|
E||-5----5----5----5---|-5----5----5/---12---|

G||------------------------|----------------------|
D||------------------------|-------------10----10-|
A||------------------------|----------------------|
E||-10----10----10----10---|-8----8----8-----8----|


Chorus

G||--------------------|--------------------|
D||--------------------|--------------------|
A||-0-0--0-0--0-7--7-5-|-3-3--3-3--3-3--3-3-|
E||--------------------|--------------------|

G||--------------------|----------------5---||
D||-3-3--3-3--3--------|-------------7----7-||  x4
A||-------------3--5-3-|-5-5--5-5--5--------||
E||--------------------|--------------------||


Verse 2

G||--------------------|-------------------------|
D||--------------------|-------------------------|
A||--------------------|-------------------------|
E||-5-5--5-5--5-5--5-5-|-5-5--5-5/--12-12--12-12-|
[ Tab from: http://www.guitartabs.cc/tabs/t/two_door_cinema_club/i_can_talk_btab_ver_2.html ]
G||----------------------------|--------------------||
D||----------------------------|--------------------||  x2
A||----------------------------|--------------------||
E||-10-10--10-10--10-10--10-10-|-8-8--8-8----8----8-||


G||--------------------|---------------------|
D||--------------------|---------------------|
A||--------------------|--------7------------|
E||-5----5----5----5---|-5----5----5/---12---|

G||------------------------|----------------------|
D||------------------------|-------------10----10-|
A||------------------------|----------------------|
E||-10----10----10----10---|-8----8----8-----8----|

G||--------------------|---------------------|
D||--------------------|---------------------|
A||--------------------|---------------------|
E||-5----5----5----5---|-5----5----5/---12---|

G||------------------------|----------------------|
D||------------------------|-------------10----10-|
A||------------------------|----------------------|
E||-10----10----10----10---|-8----8----8-----8----|


Chorus 2

G||--------------------|--------------------|
D||--------------------|--------------------|
A||-0-0--0-0--0-7--7-5-|-3-3--3-3--3-3--3-3-|
E||--------------------|--------------------|

G||--------------------|----------------5---||
D||-3-3--3-3--3--------|-------------7----7-||  x4
A||-------------3--5-3-|-5-5--5-5--5--------||
E||--------------------|--------------------||


Outro

G||---------------------|---------------------|
D||--------------10-----|---------------------|
A||-0----0----0------12-|--------------10--12-|
E||---------------------|-8----8----8---------|

G||-------------------|---------------------||
D||-------------------|------------------10-||  x4
A||--------------7--8-|-5----5----5--12-----||
E||-1----1----1-------|---------------------||


Chorus 2

G||--------------------|--------------------|
D||--------------------|--------------------|
A||-0-0--0-0--0-7--7-5-|-3-3--3-3--3-3--3-3-|
E||--------------------|--------------------|

G||--------------------|----------------5---||
D||-3-3--3-3--3--------|-------------7----7-||  x4
A||-------------3--5-3-|-5-5--5-5--5--------||
E||--------------------|--------------------||

G||--------------------|
D||-7------------------|
A||--------------------|
E||--------------------|


tab by: Pedro Zappa
Comments