Two Door Cinema Club - I Can Talk Chords & Tabs

 

I Can Talk Chords & Tabs

Two Door Cinema Club Chords & Tabs

Version: 1 Type: Bass Tab 0 ratings
1 star 2 stars 3 stars 4 stars 5 stars
comments

I Can Talk Bass Tab

Intro/ Chorus
G|------------------5-5-5-------5-7-5---------5----|
D|------------------------3-3-3-------------7---7--|
A|--------7-5-3-3-3-------------------5-5-5--------|
E|--5-5-5------------------------------------------| x 2


Verse (part 1)
G|-------------------------------------------------|
D|-------------------------------------------------|
A|-------------------------------------------------|
E|--5x13--5/121212--10x8--0--8888-8-8--------------| x 2


Verse (part 2)
G|-------------------------------------------------|
D|-------------------------------------10---10-----|
A|-------------------------------------------------|
E|--5-5-5-5-5-5-5-12-10-10-10-10-8-8-8----8--------| 

G|-------------------------------------------------|
D|-------------------------------------10-10-10----|
A|-------------------------------------------------|
E|--5-5-5-5-5-5-5-12-10-10-10-10-8-8-8-------------| 


Chorus
G|------------------5-5-5-------5-7-5---------5----|
D|------------------------33333-------------7---7--|
A|--------77-5-33333-------------------55555-------|
E|--55555------------------------------------------| x 4

[ Tab from: http://www.guitartabs.cc/tabs/t/two_door_cinema_club/i_can_talk_btab.html ]
Verse (part 1)
G|-------------------------------------------------|
D|-------------------------------------------------|
A|-------------------------------------------------|
E|--5x13--5/121212--10x8--0--8888-8-8--------------| x 2


Verse (part 2)
G|-------------------------------------------------|
D|-------------------------------------10---10-----|
A|-------------------------------------------------|
E|--5-5-5-5-5-5-5-12-10-10-10-10-8-8-8----8--------| 

G|-------------------------------------------------|
D|-------------------------------------10-10-10----|
A|-------------------------------------------------|
E|--5-5-5-5-5-5-5-12-10-10-10-10-8-8-8-------------| 


Chorus
G|------------------5-5-5-------5-7-5---------5----|
D|------------------------33333-------------7---7--|
A|--------77-5-33333-------------------55555-------|
E|--55555------------------------------------------| x 4


Bridge
G|--------5----------------------------------------|
D|----------7-------5-7-------------------7-10-----|
A|------------3-3-3------------7-8--5-5-5----------|
E|--5-5-5---------------1-1-1----------------------| x 4


Chorus
G|------------------5-5-5-------5-7-5---------5----|
D|------------------------33333-------------7---7--|
A|--------77-5-33333-------------------55555-------|
E|--55555------------------------------------------| x 4

End on A

Please tell me if I've done anything wrong, I hope this is fairly accurate :P
Comments