Two Door Cinema Club - Do You Want It All Chords & Tabs

 

Do You Want It All Chords & Tabs

Two Door Cinema Club Chords & Tabs

Version: 1 Type: Bass Tab 0 ratings
1 star 2 stars 3 stars 4 stars 5 stars
comments

Do You Want It All Bass Tab

Check out my bass cover of this song!

http://www.youtube.com/watch?v=8gciQUkagFs

Also check out my youtube channel for more covers!

http://www.youtube.com/user/chrisistheazn

This song may seem easy, but it is in 7/8 timing. Most songs are in 4/4 timing, so this 
may be more difficult than it appears.

Intro

G ----------------------------------------------------------------|
D ----------------------------------------------------------------|
A -0-5-5---5-5-5---5-5-5---5-5-0-5-5---5-5-5---5-5-5---5-5-0-5-5--|
E ----------------------------------------------------------------|

G --------------------------------------------------------|
D --------------------------------------------------------|
A --5-5-5---5-5-5---5-5-0-5-5---5-5-5---5-5-5---5-5-0-----|
E --------------------------------------------------------|


Verse 1

G ----------------|
D ----------------|
A -5-5-5-5-5-5-5--|  x4
E ----------------|

Chorus 1

G -----------------------------------------------------------|
D -------------------------------------------------7-7-9-9---|
A -5-5-5-5-5-5-5-5-5-5-5-5-5-0-5-5-5-5-5-5-5-5-5-5-----------|  x4
E -----------------------------------------------------------|

Verse 2

G ------------------------------------------------------------------|
D -----------------7-7-7-7-7-7-7h9-5-5-5-5-5-5-5h7-4-4-4-4-4-4h5----|
A -5-5-5-5-5-5-5p0-----------------------------------------------7--| x2
E ------------------------------------------------------------------|

Chorus 2

G -----------------------------------------------------------|
D -------------------------------------------------7-7-9-9---|
A -5-5-5-5-5-5-5-5-5-5-5-5-5-0-5-5-5-5-5-5-5-5-5-5-----------|  x6
E -----------------------------------------------------------|

Bridge/Solo

G ------------------------------------------------------------------------|
D ------------------------------------------------------------------------|
A -5-5-5-5-5-5-5-12-12-12-12-12-12-12-10-10-10-10-10-10-10-9-9-9-9-9-9-9--|
E ------------------------------------------------------------------------|


G --------------------------------------------------------------|
D -----------------------------7-7-----7-7-----7-7-----7/9------|
A -5-5---0-5-5---0-5-5---0-5/7-------7-------7-------7----------|
E --------------------------------------------------------------|
[ Tab from: http://www.guitartabs.cc/tabs/t/two_door_cinema_club/do_you_want_it_all_btab.html ]
G --------------------------------------------------------------|
D -5-5---5-5-5---5-5-5---5-5h7---4-4---4-4-4---4-4-4---5-7-7----|
A --------------------------------------------------------------|
E --------------------------------------------------------------|

G --------------------------------------------------------------|
D -----------------------------7-7-----7-7-----7-7-----7/9------|
A -5-5---0-5-5---0-5-5---0-5/7-------7-------7-------7----------|
E --------------------------------------------------------------|

G --------------------------------------------------------------|
D -5-5---5-5-5---5-5-5---5-5h7---4-4---4-4-4---4-4-4---5-7-7----|
A --------------------------------------------------------------|
E --------------------------------------------------------------|

Outro

G --------------------------------------------------------------|
D -----------------------------7-7-----7-7-----7-7-----7/9------|
A -5-5---0-5-5---0-5-5---0-5/7-------7-------7-------7----------|
E --------------------------------------------------------------|

G --------------------------------------------------------------|
D -5-5---5-5-5---5-5-5---5-5h7---4-4---4-4-4---4-4-4---5-7-7----|
A --------------------------------------------------------------|
E --------------------------------------------------------------|

G --------------------------------------------------------------|
D -----------------------------7-7-----7-7-----7-7-----7/9------|
A -5-5---0-5-5---0-5-5---0-5/7-------7-------7-------7----------|
E --------------------------------------------------------------|

G --------------------------------------------------------------|
D -5-5---5-5-5---5-5-5---5-5h7---4-4---4-4-4---4-4-4---5-7-7----|
A --------------------------------------------------------------|
E --------------------------------------------------------------|

G --------------------------------------------------------------|
D -----------------------------7-7-----7-7-----7-7-----7/9------|
A -5-5---0-5-5---0-5-5---0-5/7-------7-------7-------7----------|
E --------------------------------------------------------------|

G --------------------------------------------------------------|
D -5-5---5-5-5---5-5-5---5-5h7---4-4---4-4-4---4-4-4---5-7------|
A --------------------------------------------------------------|
E --------------------------------------------------------------|
Comments