Two Door Cinema Club - Costume Party Chords & Tabs

 

Costume Party Chords & Tabs

Two Door Cinema Club Chords & Tabs

Version: 2 Type: Tab 0 ratings
1 star 2 stars 3 stars 4 stars 5 stars
comments

Costume Party Tab

Intro 0.2 - 0.18:

|-12----------------------| 40x 
|-------------------------|
|-------------------------|
|-------------------------|
|-------------------------|
|-------------------------|

0.19 - 0.30

|---------------------------|
|-14-14-14-12---------------| 
|-------------13-14-13------|
|----------------------14h16|
|---------------------------|
|---------------------------|

|---------------------------|
|-14-14-14-12---------------| 
|-------------13-14-13------|
|---------------------------|
|---------------------------|
|---------------------------|

|---------------------------|
|-14-14-14-12---------------| 
|-------------13-14-13------|
|----------------------14h16|
|---------------------------|
|---------------------------|

|---------------------------|
|-14-14-14-12---------------| 
|-------------13-14-13~-----|
|---------------------------|
|---------------------------|
|---------------------------|

0.31 - 0.44

|-16-16-16-16-------------------------------------|
|-------------14-17-14----------------------------| 
|----------------------13--13-13-14-13-14-13----13|
|--------------------------------------------16---|
|-------------------------------------------------|
|-------------------------------------------------|

|-16-16-16-16--------------------------------------------|
|-------------14-17-14-----------------14/17-17-17-17-17-| 
|----------------------13--13-13-14-13-------------------|
|--------------------------------------------------------|
|--------------------------------------------------------|
|--------------------------------------------------------|

|-16-16-16-16-------------------------------------|
|-------------14-17-14----------------------------| 
|----------------------13--13-13-14-13-14-13----13|
|--------------------------------------------16---|
|-------------------------------------------------|
|-------------------------------------------------|
[ Tab from: http://www.guitartabs.cc/tabs/t/two_door_cinema_club/costume_party_tab_ver_2.html ]
|-16-16-16-16--------------------------------------------|
|-------------14-17-14-----------------14/17-17-17-17-17-| 
|----------------------13--13-13-14-13-------------------|
|--------------------------------------------------------|
|--------------------------------------------------------|
|--------------------------------------------------------|

0.45 - 0.58

|-17-16-19---------17-16-19-------------19-17----|
|--------------17--------------------------------|
|------------------------------------------------|
|----------18---------------18-18h19-18----------| 2x
|------------------------------------------------|
|------------------------------------------------|

0.59 - 1.11

|-17-16-19-------------19-17---------------------|
|------------------------------------------------|
|------------------------------------------------|
|-----------18-18h19-18--------------------------| 4x
|------------------------------------------------|
|------------------------------------------------|

1.12 - 1.51
repeat the riffs 0.31 to 1.11 in same order as before

1.52 - 2.19

|-16-16-16-16-------------------------------------|
|-------------14-17-14----------------------------| 
|----------------------13--13-13-14-13-14-13----13|
|--------------------------------------------16---|
|-------------------------------------------------|
|-------------------------------------------------|

|-16-16-16-16--------------------------------------------|
|-------------14-17-14-----------------14/17-17-17-17-17-| 
|----------------------13--13-13-14-13-------------------|
|--------------------------------------------------------|
|--------------------------------------------------------|
|--------------------------------------------------------|
 do both of them 4x

2.20 - 2.38
|------------------19----|    
|----19-19-19-21-19------| 12x
|------------------------|    
|------------------------|    
|------------------------|    
|------------------------|    

2.39 - 3.28

|------------------19----|    |--------------------------------------| 
|----19-19-19-21-19------| 3x |-19-19-19--19-19-19-17-17-17-17-17-17-|
|------------------------|    |--------------------------------------|
|------------------------|    |--------------------------------------|
|------------------------|    |--------------------------------------|
|------------------------|    |--------------------------------------|
keep repeating this until the song ends


Comments