Two Door Cinema Club - Costume Party Chords & Tabs

 

Costume Party Chords & Tabs

Two Door Cinema Club Chords & Tabs

Version: 1 Type: Bass Tab 0 ratings
1 star 2 stars 3 stars 4 stars 5 stars
comments

Costume Party Bass Tab

   
(0:00)
G|----------------|
D|----------------|
A|----------------|
E|----------------|


(0:16)
G|----------------| (2x)
D|----------------|
A|--------4-----2-|
E|5---4-----------|

(0:29)
G|----------------| (4x)
D|2-2-44---------4|
A|-------4-4-4-24-|
E|----------------|

(0:43)
G|----------------| (2x)
D|----------------|
A|--------4-----2-|
E|5---4-----------|

(0:56)
G|-------------------------------| (2x)
D|-------------------------------|
A|----------------4-4-4-4-4-4-2-2|
E|5-5-5-5-4-4-4-4----------------|

(1:10)
G|----------------| (4x)
D|2-2-44---------4|
A|-------4-4-4-24-|
E|----------------|

(1:24)
G|----------------| (2x)
D|----------------|
A|--------4-----2-|
E|5---4-----------|
[ Tab from: http://www.guitartabs.cc/tabs/t/two_door_cinema_club/costume_party_btab.html ]
(1:37)
G|-------------------------------| (2x)
D|-------------------------------|
A|----------------4-4-4-4-4-4-2-2|
E|5-5-5-5-4-4-4-4----------------|

(1:50)
G|----------------| (8x)
D|2-2-44---------4|
A|-------4-4-4-24-|
E|----------------|

(2:17) (Break)
G|----------------|
D|----------------|
A|----------------|
E|----------------|

(2:24)
G|----------------| (3x)
D|2-2-2-2-2-2-2-2-|
A|----------------|
E|----------------|

(2:34)
G|----------------|
D|2-2-2-2---------|
A|----------------|
E|----------------|

(2:37)
G|--------------------------------| (6x)
D|------9966666-6------8----------|
A|777777----------------8-------87|
E|----------------555555--555555--|

(3:17)
G|----------------|
D|2*--------------| *Let it ring
A|----------------|
E|----------------|
Comments