Two Door Cinema Club - Cigarettes In The Theatre Chords & Tabs

 

Cigarettes In The Theatre Chords & Tabs

Two Door Cinema Club Chords & Tabs

Version: 2 Type: Bass Tab 0 ratings
1 star 2 stars 3 stars 4 stars 5 stars
comments

Cigarettes In The Theatre Bass Tab

Here's a variation of the past tab. I've figured it out to play it easier.
Have fun.

Intro X 4 (Starts at 0:16)
G)|-------------------------------------------------------------|
D)|-------------------------------------------------------------|
A)|----------10-10--7-7---------------------3-3-5-5-------------|
E)|-5-5-5-5------------------8-8-8-8-8-8------------------------|

Pre-Verse X2
G)|-------------------------------------------------------------|  
D)|----------5--2-----------5--2-----------5--2----------5--2---|
A)|-0-0-0-0---------3-3-3-3-------------------------------------|
E)|--------------------------------3-3-3-3-------3-3-3-3--------|

Verse X 2
G)|--------------------------------------------------------------|
D)|-----------------------------------------2-2-2-2-2-2----------|
A)|------------3-3-3-3-3-3---------------------------------------|
E)|-5-5-5-5-5---------------3-3-3-3-3-3-3-----------------------|

Chorus X2
G)|---------------------------------------------------------------|
D)|---------------------------------------------------------------|
A)|-7-7-7-7-7-7--3-3-3-3-3-3---------------5-5-5-5-5-5------------|
E)|---------------------------3-3-3-3-3-3-------------------------|
[ Tab from: http://www.guitartabs.cc/tabs/t/two_door_cinema_club/cigarettes_in_the_theatre_btab_ver_2.html ]
Pre-Verse X2
G)|-------------------------------------------------------------|  
D)|----------5--2-----------5--2-----------5--2----------5--2---|
A)|-0-0-0-0---------3-3-3-3-------------------------------------|
E)|--------------------------------3-3-3-3-------3-3-3-3--------|

Verse X 2
G)|--------------------------------------------------------------|
D)|-----------------------------------------2-2-2-2-2-2----------|
A)|------------3-3-3-3-3-3---------------------------------------|
E)|-5-5-5-5-5---------------3-3-3-3-3-3-3-----------------------|

Chorus X2
G)|---------------------------------------------------------------|
D)|---------------------------------------------------------------|
A)|-7-7-7-7-7-7--3-3-3-3-3-3---------------5-5-5-5-5-5------------|
E)|---------------------------3-3-3-3-3-3-------------------------|

Pre-Verse X2
G)|-------------------------------------------------------------|  
D)|----------5--2-----------5--2-----------5--2----------5--2---|
A)|-0-0-0-0---------3-3-3-3-------------------------------------|
E)|--------------------------------3-3-3-3-------3-3-3-3--------|

(BASS PLAYS NOTHING UP TO > 2:38)

Outro X8
G)|-------------------------------------------------------|
D)|-------------------------------------------------------|
A)|-3-3-3-3-3-3-3-----------------------------------------|
E)|---------------3-3-3-3-3-3-3-3-3-----------------------|

Ending
G)|------------------------------------------------------------------|
D)|------------------------------------------------------------------|
A)|------------------------------------------------------------------|
E)|-0-----0----------0------------0----------------------------------|

Comments