Two Door Cinema Club - Beacon Chords & Tabs

 

Beacon Chords & Tabs

Two Door Cinema Club Chords & Tabs

Version: 2 Type: Tab 0 ratings
1 star 2 stars 3 stars 4 stars 5 stars
comments

Beacon Tab

   
Two Door Cinema Club, Beacon.
(Album Version)

(look out for the time brackets next to certain parts, it
 just makes it clearer to see where you are in the song)

Alex (0:24)
e|--7-7--------|
B|------9------|
G|--------10---|
D|-------------|
A|-------------|
E|-------------|

Sam (0:24)
e|---------------------------------------|
B|---------------------------------------|
G|--------9------------------9-----------|
D|--11-12---12-11-9-12-11-12---12-11-10--|
A|---------------------------------------|
E|---------------------------------------|
(Sam seems to play this a string down within live versions I have seen on YouTube but 
this tab is for the album version and it seems to be played a little different)


Wait For something more
When you show
I follow


Sam  (1:26)
e|--12-12-12-10--10--14--|
B|-----------------------|
G|-----------------------| (Until 1:58)
D|-----------------------|
A|-----------------------|
E|-----------------------|


Alex   (1:26)   (I realize this is done on keyboard but this is the closest I could get)
    (E)       (D/F#)      (F#m)      (C#m)
e|--------------------------------------------|
B|---9----------7----------10----------9------|
G|---9----------7----------11----------9------| Listen out for timing
D|---9----------7----------12----------11-----|
A|---7----------9----------9-----------11-----|
E|--------------------------------------------|

The beacon light is calling me
the light that never dies
reflections thrown above the sea
casts shadows in the sky

Standing right in front of you
Is where I need to be
Reliving this is something new
And something finally
[ Tab from: http://www.guitartabs.cc/tabs/t/two_door_cinema_club/beacon_tab_ver_2.html ]
Alex (1:58)
    (A)       (Bm)        (F#m)      (D)
e|------------------------------------------|
B|---9----------3----------2----------7-----|
G|---9----------4----------2----------7-----| Listen out for timing
D|---9----------4----------4----------7-----|
A|---7----------2----------4----------5-----|
E|------------------------------------------|

Take the deep end
And swim 'til you can stand
Cause it will make a difference in the end

Trip the shudder
And keep the picture close
Save it until you need it the most


Sam    (2:14)
  /This section is done Three times\/This is every Fourth time\
e|---------------------------------|---------------12-10-9-----|
B|------10--12-12-------12-10------|-----10--12-12-------------|
G|--11------------11-11-------11---|-11------------------------|
D|---------------------------------|---------------------------|
A|---------------------------------|---------------------------|
E|---------------------------------|---------------------------|

I'm coming home home home home
I'm coming hoooooooooooooooome
I'm coming home home home home
I'm coming hoooooooooooooooome


Sam    (2:38)
e|----------------12-10-9---|
B|------10--12-12-----------|
G|--11----------------------|
D|--------------------------|
A|--------------------------|
E|--------------------------|


(2:46)
As the song continues it gets heavier so just strum
A Bm F#m D
(These chords are played right until the end)


Sam     (2:46)
e|--12-12-12-12--10-9-10--12-12-12-12--10-9-10--12-12-12-12--10-9-10-10-10-10-10-9-9-9--|
B|--------------------------------------------------------------------------------------|
G|--------------------------------------------------------------------------------------|
D|--------------------------------------------------------------------------------------|
A|--------------------------------------------------------------------------------------|
E|--------------------------------------------------------------------------------------|

I hope you enjoy playing this amazing song
Comments