Two Door Cinema Club - Beacon Chords & Tabs

 

Beacon Chords & Tabs

Two Door Cinema Club Chords & Tabs

Version: 1 Type: Bass Tab 0 ratings
1 star 2 stars 3 stars 4 stars 5 stars
comments

Beacon Bass Tab

Another great bass line by two door :) it sounds right to me but if you think theres any 
mistakes please leave a comment.

Standard tuning

Intro

      x1
G------------|-----------------------------------|
D------------|------------------------444--------|          Play until chorus (ends on the last 2)
A-55-555-555-|-555-7775-/2222-222-22-----555555--|
E------------|-----------------------------------|
[ Tab from: http://www.guitartabs.cc/tabs/t/two_door_cinema_club/beacon_btab.html ]
Chorus
G---------------------------9h11-|
D------9---------9-11-9--99------|
A-----9--9----7-9-------9--------|
E-12-------7---------------------|

G--------------------------9h11-----------|
D-----9------9--9-11-9--99----------------|          Repeat chorus
A----9--9-------------9-------------------|
E-12------7-------------------------------|

Outro
G-------------------|
D------------9h11p9-|
A---------9---------|   Repeat till end of song
E-5h6h7-------------|
Comments