Two - Stutter Kiss Chords & Tabs

 

Stutter Kiss Chords & Tabs

Two Chords & Tabs

Version: 1 Type: Tab 0 ratings
1 star 2 stars 3 stars 4 stars 5 stars
comments

Stutter Kiss Tab

   
Song: Stutter Kiss
Arist: Two
Written by: John Lowery and Bob Marlette
Lyrics by: Rob Halford
Rating: 4 of 5  Solo: 5 of 5
Album: Voyuers
Guitar Player: John Lowery 
tabed by: Per "Pocket" Stenberg
fanta98@hotmail.com


Notes:
A briljent song by the band Two. The solo has some hard parts in it
and it is a hell of solo. One John Lowerys best solo, His fast Acoustic
solo in his new song "Slat Creek" is twice as good as anything I have ever heard.
Wonder why Lowery doesn't do as great tunes in his new band (Marilyn Manson)


Legend:

h = hammer-on
p = pull-of
b = bend
r = realse
/ = slide down
\ = slide upp
~ = vibration
T = taping
. = palm muted
()= ghost note
x = mute with your left hand
' = Make the note sound really high

Intro  w/effect

|-----------------------------------|
|-----------------------------------|
|-----------------------------------|
|-0h5/7--0h5/7--0h5/7--7-7/10/12\10-|
|-0h3/5--0h3/5--0h3/5--5-5/8-/10\8--|
|-----------------------------------|


Verse
Played on a acoutic guitar along with a bass I think...

|-----------------------------------|
|-----------------------------------|
|--------------------------10/12\10-|
|-0h5/7--0h5/7--0h5/7--7-7/10/12\10-|
|-0h3/5--0h3/5--0h3/5--5-5/8-/10\8--|
|-----------------------------------|
  . . .  . . .  . . .  . . 


Chours

|---------------|---------------|---------------|-----------------------|
|---------------|---------------|---------------|-----------------------|
|-5/7-7-7-7-7-7-|-5/7-7-7-7-7-7-|-5/7-7-7-7-7-7-|-5/7-7-7-7-7-7---------|
|-5/7-7-7-7-7-7-|-5/7-7-7-7-7-7-|-5/7-7-7-7-7-7-|-5/7-7-7-7-7-7---------|
|-3/5-5-5-5-5-5-|-3/5-5-5-5-5-5-|-3/5-5-5-5-5-5-|-3/5-5-5-5-5-5-*8-7-5-3|
|---------------|---------------|---------------|-----------------------|
*= played by a bass

Post-Chours
Use some heavy palm muting here

|-----------------------------------|
|-----------------------------------|
|-----------------------------------|
|-0h5-7--0h5-7--0h5-7--7-7/10/12\10-|
|-0h3-5--0h3-5--0h3-5--5-5/8-/10\8--|
|-----------------------------------|
  . . .  . . .  . . .  . . .  .  .


Verse 2
After awhile the intro guitar with the effect comes back
in the 2nd verse.
|-----------------------------------|
|-----------------------------------|
|--------------------------10/12\10-|
|-0h5/7--0h5/7--0h5/7--7-7/10/12\10-|
|-0h3/5--0h3/5--0h3/5--5-5/8-/10\8--|
|-----------------------------------|
  . . .  . . .  . . .  . . 


Chours
[ Tab from: http://www.guitartabs.cc/tabs/t/two/stutter_kiss_tab.html ]
|---------------|---------------|---------------|-----------------------|
|---------------|---------------|---------------|-----------------------|
|-5/7-7-7-7-7-7-|-5/7-7-7-7-7-7-|-5/7-7-7-7-7-7-|-5/7-7-7-7-7-7---------|
|-5/7-7-7-7-7-7-|-5/7-7-7-7-7-7-|-5/7-7-7-7-7-7-|-5/7-7-7-7-7-7---------|
|-3/5-5-5-5-5-5-|-3/5-5-5-5-5-5-|-3/5-5-5-5-5-5-|-3/5-5-5-5-5-5-*8-7-5-3|
|---------------|---------------|---------------|-----------------------|


Bridge

|---------------------------------------|
|---------------------------------------|
|-5-5-5-5-5-5-5-5-4-4-4-4-4-4-3-3-3-3-2-|
|-5-5-5-5-5-5-5-5-4-4-4-4-4-4-3-3-3-3-2-|
|-3-3-3-3-3-3-3-3-2-2-2-2-2-2-1-1-1-1-0-|
|---------------------------------------|


Solo
I don't have problems tabing guitar solos but sometimes I can have BIG 
problems with it, this one for example!
The only thing I'm sure about is the fast part of the solo!
And remeber to hold on to you hat when you play this!

                                    I'm not even 10% sure of this part
|----------------------------|--'17----------------------------------|
|---9-8-9----11-10-9---8h9---|------15~------------------------------|
|-8-------8----------8-----8-|-----------15-------16-------15h16p15--|
|----------------------------|--------------15-15----16-16---------16|
|----------------------------|---------------------------------------|
|----------------------------|---------------------------------------|
                                            .  .     .  .
                                       Play so fast that your fingers bleed!
|-14-15-16-15-14-----------------------|-------9---------------9-------|
|----------------16--14-15-16-15-14----|----------12p9--12b-------12p9-|
|-----------------------------------15-|-11b---------------------------|
|--------------------------------------|-------------------------------|
|--------------------------------------|-------------------------------|
|--------------------------------------|-------------------------------|


|--------9----------------9---------------9--------10~|
|-12b-------12p9--12b--------12p9--12b-------12p9-----|
|-----------------------------------------------------|
|-----------------------------------------------------|
|-----------------------------------------------------|
|-----------------------------------------------------|


Break

|---------------------|
|---------------------|
|-7-7--7-7--7-7--7-7--|
|-7-7--7-7--7-7--7-7--|
|-5-5--5-5--5-5--5-5--|
|---------------------|


Chours

|---------------|---------------|---------------|-----------------------|
|---------------|---------------|---------------|-----------------------|
|-5/7-7-7-7-7-7-|-5/7-7-7-7-7-7-|-5/7-7-7-7-7-7-|-5/7-7-7-7-7-7---------|
|-5/7-7-7-7-7-7-|-5/7-7-7-7-7-7-|-5/7-7-7-7-7-7-|-5/7-7-7-7-7-7---------|
|-3/5-5-5-5-5-5-|-3/5-5-5-5-5-5-|-3/5-5-5-5-5-5-|-3/5-5-5-5-5-5-*8-7-5-3|
|---------------|---------------|---------------|-----------------------|


Outro

The outro is the intro riff played backwards.


That is it
Comments