Twisted Sister - Were Not Gonna Take It Chords & Tabs

 

Were Not Gonna Take It Chords & Tabs

Twisted Sister Chords & Tabs

Version: 8 Type: Tab 0 ratings
1 star 2 stars 3 stars 4 stars 5 stars
comments

Were Not Gonna Take It Tab

Hey I was lookin through teh song inventory and when i looked for we're not gonna take
it" i was surprised to see that no one had the whole song done out right. there were bits
and peices everywhere. so i have done my best to construct this song with some of my own
input. im sorry i didnt take the trouble to put the lyrics above the lines so u can sing
with it. but its a really easy song so im sure u can figure it out. im not saying there
are no mistakes as it is my first tab. you should be able to play this right through the
recording ive got the whole thing tabbed out note for note.

any corrections id love to talk about em so u can email me at ben_jamin401@hotmail.com

Hope this tab works well for yah!!!!!!!

(Drums Alone)
We're not gonna take it, no we ain't gonna take it, we're not gonna take it
anymooooooooooooooooooooore

Intro
-----------------------------------------------------------------------------|
-----------------------------------------------------------------------------|
-----------------------------------------------------------------------------|
-14---14-13--13-11--11-9-/-14--14-13--13-11--11-9----------------------------|
-14---14-13--13-11--11-9-/-14--14-13--13-11--11-9----------------------------|
-12---12-11--11-9---9--7-/-12--1211--11-9---9--7----------------------------|

Verse 1
------------------------------------------------------------------------------|
------------------------------------------------------------------------------|
------------------------------------------------------------------------------|
2222-2222-9999-9999-2222-2222-7777-7777-2222-2222-9999-9999-2222-2222-99-9999-|
2222-2222-9999-9999-2222-2222-7777-7777-2222-2222-9999-9999-2222-2222-99-9999-|
0000-0000-7777-7777-0000-0000-5555-5555-0000-0000-7777-7777-0000-0000-77-7777-|

Verse 2
------------------------------------------------------------------------------|
------------------------------------------------------------------------------|
------------------------------------------------------------------------------|
2222-2222-9999-9999-2222-2222-7777-7777-2222-2222-9999-9999-2222-2222-99-9999-|
2222-2222-9999-9999-2222-2222-7777-7777-2222-2222-9999-9999-2222-2222-99-9999-|
0000-0000-7777-7777-0000-0000-5555-5555-0000-0000-7777-7777-0000-0000-77-7777-|

Chorus 2
-----------------------------------------------------------------------------|
-----------------------------------------------------------------------------|
-----------------------------------------------------------------------------|
-14-14----------------------14-14--------------------14-14-------------------|
-14-14--9-9-11-9--9-9-11-9--14-14--7-7-9-7--7-7-9-7--14-14-------------------|
-12-12--7-7-7--7--7-7-7--7--12-12--5-5-5-5--5-5-5-5--12-12-------------------|

-----------------------------------------------------------------------------|
-----------------------------------------------------------------------------|
-----------------------------------------------------------------------------|
----------------------14---14-13--13-11--11-9--------------------------------|
-9-9-11-9--9-9-11-9---14---14-13--13-11--11-9--------------------------------|
-7-7-7--7--7-7-7--7---12---12-11--11-9---9--7--------------------------------|

Verse 3
------------------------------------------------------------------------------|
------------------------------------------------------------------------------|
------------------------------------------------------------------------------|
2222-2222-9999-9999-2222-2222-7777-7777-2222-2222-9999-9999-2222-2222-99-9999-|
2222-2222-9999-9999-2222-2222-7777-7777-2222-2222-9999-9999-2222-2222-99-9999-|
0000-0000-7777-7777-0000-0000-5555-5555-0000-0000-7777-7777-0000-0000-77-7777-|

Verse 4
-----------------------------------------------------------------------------|
-----------------------------------------------------------------------------|
-----------------------------------------------------------------------------|
2222-2222-9999-9999-2222-2222-7777-7777-2222-2222-9999-9999------------------|
2222-2222-9999-9999-2222-2222-7777-7777-2222-2222-9999-9999------------------|
0000-0000-7777-7777-0000-0000-5555-5555-0000-0000-7777-7777------------------|

-----------------------------------------------------------------------------|
-----------------------------------------------------------------------------|
-----------------------------------------------------------------------------|
-14---14-13--13-11--11-9-----------------------------------------------------|
-14---14-13--13-11--11-9-----------------------------------------------------|
-12---12-11--11-9---9--7-----------------------------------------------------|

Bridge (Palm Mute)
-----------------------------------------------------------------------------|
-----------------------------------------------------------------------------|
-----------------------------------------------------------------------------|
-12-12-12-12--12-12-12-12--11-11-11-11--9-9-9-9------------------------------|
-12-12-12-12--12-12-12-12--11-11-11-11--9-9-9-9------------------------------|
-10-10-10-10--10-10-10-10--9--9--9--9---7-7-7-7------------------------------|

(Palm Mute)
-----------------------------------------------------------------------------|
-----------------------------------------------------------------------------|
-----------------------------------------------------------------------------|
-12-12-12-12--12-12-12-12--11-11-11-11--9-9-9-9---2--2--3--3--4--4-----------|
-12-12-12-12--12-12-12-12--11-11-11-11--9-9-9-9---2--2--3--3--4--4-----------|
-10-10-10-10--10-10-10-10--9--9--9--9---7-7-7-7---0--0--1--1--2--2-----------|

-----------------------------------------------------------------------------|
-----------------------------------------------------------------------------|
-4444-4444-4444-4444---------------------------------------------------------|
-4444-4444-4444-4444---------------------------------------------------------|
-2222-2222-2222-2222---------------------------------------------------------|
-----------------------------------------------------------------------------|
[ Tab from: http://www.guitartabs.cc/tabs/t/twisted_sister/were_not_gonna_take_it_tab_ver_8.html ]
Chorus 1
-----------------------------------------------------------------------------|
-----------------------------------------------------------------------------|
-----------------------------------------------------------------------------|
-14-14----------------------14-14--------------------14-14-------------------|
-14-14--9-9-11-9--9-9-11-9--14-14--7-7-9-7--7-7-9-7--14-14-------------------|
-12-12--7-7-7--7--7-7-7--7--12-12--5-5-5-5--5-5-5-5--12-12-------------------|

-----------------------------------------------------------------------------|
-----------------------------------------------------------------------------|
-----------------------------------------------------------------------------|
----------------------14-14-99-99-99-----------------------------------------|
-9-9-11-9--9-9-11-9---14-14-99-99-99-----------------------------------------|
-7-7-7--7--7-7-7--7---12-12-77-77-77-----------------------------------------|

Chorus 2
-----------------------------------------------------------------------------|
-----------------------------------------------------------------------------|
-----------------------------------------------------------------------------|
-14-14----------------------14-14--------------------14-14-------------------|
-14-14--9-9-11-9--9-9-11-9--14-14--7-7-9-7--7-7-9-7--14-14-------------------|
-12-12--7-7-7--7--7-7-7--7--12-12--5-5-5-5--5-5-5-5--12-12-------------------|

-----------------------------------------------------------------------------|
-----------------------------------------------------------------------------|
-----------------------------------------------------------------------------|
----------------------14---14-13--13-11--11-9--------------------------------|
-9-9-11-9--9-9-11-9---14---14-13--13-11--11-9--------------------------------|
-7-7-7--7--7-7-7--7---12---12-11--11-9---9--7--------------------------------|

Solo (With Normal Verse Palm Muted Underneath)
-----------------------------------------------------------------------------|
----------------9----9--10vv-9----9---------9--------12vvvv-----------------|
9---9--11---11----11-----------11--11-9-11---999vvv------------------------|
---9-------9-----------------------------------------------------------------|
-----------------------------------------------------------------------------|
-----------------------------------------------------------------------------|

-----------------------------------------------------------------------------|
------------------9---------9--11-------9--9------------9--------------------|
-9-----9--10------9--9--11--9--9---9/4--9--9--11-9--11--9--9-9-9-------------|
-9--9--9--9--9vv-----9--9----------9/4--------9--9--9------9-9-9-------------|
----9--------9vv-------------------------------------------------------------|
-----------------------------------------------------------------------------|


-----------------------------------------------------------------------------|
-----------------------------------------------------------------------------|
-----------------------------------------------------------------------------|
-14---14-13--13-11--11-9-----------------------------------------------------|
-14---14-13--13-11--11-9-----------------------------------------------------|
-12---12-11--11-9---9--7-----------------------------------------------------|

Bridge (Palm Mute)
-----------------------------------------------------------------------------|
-----------------------------------------------------------------------------|
-----------------------------------------------------------------------------|
-12-12-12-12--12-12-12-12--11-11-11-11--9-9-9-9------------------------------|
-12-12-12-12--12-12-12-12--11-11-11-11--9-9-9-9------------------------------|
-10-10-10-10--10-10-10-10--9--9--9--9---7-7-7-7------------------------------|

(Palm Mute)
-----------------------------------------------------------------------------|
-----------------------------------------------------------------------------|
-----------------------------------------------------------------------------|
-12-12-12-12--12-12-12-12--11-11-11-11--9-9-9-9---2--2--3--3--4--4-----------|
-12-12-12-12--12-12-12-12--11-11-11-11--9-9-9-9---2--2--3--3--4--4-----------|
-10-10-10-10--10-10-10-10--9--9--9--9---7-7-7-7---0--0--1--1--2--2-----------|

-----------------------------------------------------------------------------|
-----------------------------------------------------------------------------|
-4444-4444-4444-4444---------------------------------------------------------|
-4444-4444-4444-4444---------------------------------------------------------|
-2222-2222-2222-2222---------------------------------------------------------|
-----------------------------------------------------------------------------|

Chorus Without Guitar until very end then play this
-----------------------------------------------------------------------------|
-----------------------------------------------------------------------------|
-----------------------------------------------------------------------------|
-99-99-99--------------------------------------------------------------------|
-99-99-99--------------------------------------------------------------------|
-77-77-77--------------------------------------------------------------------|

Chorus 2
-----------------------------------------------------------------------------|
-----------------------------------------------------------------------------|
-----------------------------------------------------------------------------|
-14-14----------------------14-14--------------------14-14-------------------|
-14-14--9-9-11-9--9-9-11-9--14-14--7-7-9-7--7-7-9-7--14-14-------------------|
-12-12--7-7-7--7--7-7-7--7--12-12--5-5-5-5--5-5-5-5--12-12-------------------|

-----------------------------------------------------------------------------|
-----------------------------------------------------------------------------|
-----------------------------------------------------------------------------|
----------------------14---14-13--13-11--11-9--------------------------------|
-9-9-11-9--9-9-11-9---14---14-13--13-11--11-9--------------------------------|
-7-7-7--7--7-7-7--7---12---12-11--11-9---9--7--------------------------------|


Continue chorus 1 and 2 and fade out
Comments