Twisted Sister - Were Not Gonna Take It Chords & Tabs

 

Were Not Gonna Take It Chords & Tabs

Twisted Sister Chords & Tabs

Version: 2 Type: Tab 6 ratings
1 star 2 stars 3 stars 4 stars 5 stars
comments

Were Not Gonna Take It Tab

   
#----------------------------------PLEASE NOTE---------------------------------#
#This file is the author's own work and represents their interpretation of the #
#song. You may only use this file for private study, scholarship, or research. #
#------------------------------------------------------------------------------##
#

Date: Wed, 05 Jul 95 12:06:47 -0400
From: "Michael Zalot[mav]" 

"We're Not Gonna Take It" by Twisted Sister
words and music by Dee Snider
transcription by Mike C. Zalot (mcz@ulysses.att.com)
updating a chord posting by Henrik Borjeson (henrik@toll.tde.lth.se)



Riff Pattern

 E5      D#5     C#5    B5  E5
|--------------|--------------|
|--------------|--------------|
|9----9-8----8-|6----6-4------|
|9----9-8----8-|6----6-4----2-|
|7----7-6----6-|4----4-2----2-|
|--------------|------------0-|


Verse And Chorus Pattern

 E               B
|---------------|----------------|
|---------------|----------------|
|---------------|4-4-4-4-4-4-4-4-|
|2-2-2-2-2-2-2-2|4-4-4-4-4-4-4-4-|
|2-2-2-2-2-2-2-2|2-2-2-2-2-2-2-2-|
|0-0-0-0-0-0-0-0|----------------|

Palm Muting----------------------|


 E               A
|---------------|----------------|
|---------------|----------------|
|---------------|2-2-2-2-2-2-2-2-|
|2-2-2-2-2-2-2-2|2-2-2-2-2-2-2-2-|
|2-2-2-2-2-2-2-2|0-0-0-0-0-0-0-0-|
|0-0-0-0-0-0-0-0|----------------|

Palm Muting----------------------|


 E               B
|---------------|----------------|
|---------------|----------------|
|---------------|4-4-4-4-4-4-4-4-|
|2-2-2-2-2-2-2-2|4-4-4-4-4-4-4-4-|
|2-2-2-2-2-2-2-2|2-2-2-2-2-2-2-2-|
|0-0-0-0-0-0-0-0|----------------|

Palm Muting----------------------|



 E               B
|---------------|----------------|
|---------------|----------------|
|---------------|------4-4-4-4-4-|
|2-2-2-2-2-2-2-2|------4-4-4-4-4-|
|2-2-2-2-2-2-2-2|------2-2-2-2-2-|
|0-0-0-0-0-0-0-0|----------------|

Palm Muting-----|      < < < < <





We've got the right to choose and
There ain't no way we'll lose it
This is our life, this is our song 
We'll fight the powers that be just
Don't pick our destiny 'cause
You don't know us, you don't belong 
[ Tab from: http://www.guitartabs.cc/tabs/t/twisted_sister/were_not_gonna_take_it_tab_ver_2.html ]
Oh we're not gonna take it
No, we ain't gonna take it
Oh we're not gonna take it 
Anymore  

Oh you're so condescending
Your gall is never ending
We don't want nothin', not a thing from you
Your life is trite and jaded
Boring and confiscated
If that's your best, your best won't do 




Bridge Pattern

 D5    C#m5      B5
|---------------|----------------|
|---------------|----------------|
|7-7-7-7-6-6-6-6|4-4-4-4-4-4-4-4-|
|7-7-7-7-6-6-6-6|4-4-4-4-4-4-4-4-|
|5-5-5-5-4-4-4-4|2-2-2-2-2-2-2-2-|
|---------------|----------------|

Palm Muting----------------------|

Whoa, oh, oh . . . .
Whoa, oh, oh . . . .


 E5     F5      F#5   B5
|--------------|--------------|--------------|
|--------------|--------------|--------------|
|--------------|------44444444|--------------|
|2-2----3-3----|4-4---44444444|--------------|
|2-2----3-3----|4-4---22222222|--------------|
|0-0----1-1----|2-2-----------|--------------|

We're right--(yeah)   We're free--(yeah)
We'll fight--(yeah)   You'll see--(yeah)



Just you try and make us
Come on
You're all worthless and weak
Now drop and give me twenty
Oh crinch pin
Oh you and your uniform






Twisted Sister
Were Not Gonna Take It (Solo)
Transcribed By: Ric Hillier (Rhillier@jburke.k12.nf.ca)
Tuning Standard

\/ - Denotes Use Tromolo Bar


                  \/          \/  \/  \/
e-----------------------------------------------
B--5-----5--7-----7--9--7--9--10--10--10--9--7--
G-----4--------4--------------------------------
D-----------------------------------------------
A-----------------------------------------------
E-----------------------------------------------


                 \/  \/             \/
e--------------------7--------------------------
B--9--7--5--7--9--5-----5-----5--7--------------
G--------------------------4--------4--9--7--9--
D-----------------------------------------------
A-----------------------------------------------
E-----------------------------------------------


           \/                \/
e-----------------------------------------------
B--10--10--5--9--7--5--7--9--5------------------
G-----------------------------------------------
D-----------------------------------------------
A-----------------------------------------------
E-----------------------------------------------

Comments