Twisted Sister - The Price Chords & Tabs

 

The Price Chords & Tabs

Twisted Sister Chords & Tabs

Version: 3 Type: Bass Tab

The Price Bass Tab

BASS
TWISTED SISTER
THE PRICE

TABBED BY BILLY MILNE
EADG

INTRO/CHORUS
G-----------------|
D-----------------|
A------2----7--6--|
E-0---------------|

G-----------------------|
D-----------------------|
A------2--4------2---4--|
E-0----------2-4---4----|

REST
[ Tab from: http://www.guitartabs.cc/tabs/t/twisted_sister/the_price_btab_ver_3.html ]
VERSE
G-------------------------|
D-------------------------|
A-4--2----------4--4-4-4--|
E-------5--7-7------------|

PRE-CHORUS
G-------------------------------------------------|
D-------------------------------------------------|
A------2---2--4----4--2--------------4--4-4-4---4-|
E-0---------------------5----7-7--7---------------|

END
G-----------------|
D-----------------|
A------2----7--6--|
E-0---------------|

G-----------------|
D-----------------|
A------2----4~~~--|
E-0---------------|