Twisted Sister - Burn In Hell Chords & Tabs

 

Burn In Hell Chords & Tabs

Twisted Sister Chords & Tabs

Version: 2 Type: Bass Tab 0 ratings
1 star 2 stars 3 stars 4 stars 5 stars
comments

Burn In Hell Bass Tab

   
                                    Twisted Sister-Burn in Hell
					Album-Stay Hungry

Tabbed by-Justin_Bass-God
justinvonrueden@msn.com


Gtr I (E A D G) - 'Bass'

    
   4/4
    Gtr I
    Q.   E Q  Q    Q.   E E E E E  4x
||---------------|-----------------||
||o--------------|----------------o||
||o--------7--5--|-3----3-5-5-----o||
||--0----0-------|------------3-2--||


    Q.   E H      Q.   E Q  E E  3x
||--------------|----------------||
||o-------------|---------------o||
||o-------------|---------------o||
||--0----0-0----|-0----0-0--3-2--||


  Q.   E H      Q.   E Q  E E     Q.   E H      Q.   E Q  E E  3x
|-------------|---------------||--------------|----------------||
|-------------|---------------||o-------------|---------------o||
|-------------|---------------||o-------------|---------------o||
|-0----0-0----|-0----0-0--0-2-||--3----3-3----|-0----0-0--0-2--||

                         
  H    H      W          W
|-----------|----------|------|
|-----------|----------|------|
|-----------|----------|------|
|-3----2----|-1--------|------|


  E. E. E. E. E E   E. E. E. E. E E   E. E. E. E. E E
|-----------------|-----------------|-----------------|
|-----------------|-----------------|-----------------|
|-2---------------|-3---------------|-2---------------|
|----0--0--0--0-0-|----0--0--0--0-0-|----0--0--0--0-0-|


  E. E. E. E. E E   E. E. E. E. E E   E. E. E E. E. E
|-----------------|-----------------|-----------------|
|-----------------|-----------------|-----------------|
|-3---------------|-2---------------|---------------0-|
|----0--0--0--0-0-|----0--0--0--0-0-|-3--2--0-2--3----|


  E. E. E. E. E E   E. E. E. E. E E   E. E. E. E. E E
|-----------------|-----------------|-----------------|
|-----------------|-----------------|-----------------|
|-2---------------|-3---------------|-2---------------|
|----0--0--0--0-0-|----0--0--0--0-0-|----0--0--0--0-0-|


  E. E. E E. E. E   E. E. E. E. E E   E. E. E. E. E E
|-----------------|-----------------|-----------------|
|-----------------|-----------------|-----------------|
|-2--0----2--0----|-2---------------|-3---------------|
|-------3-------3-|----0--0--0--0-0-|----0--0--0--0-0-|


    E E E E Q  E E   E E Q  E E Q
||-----------------|---------------|
||o----------------|---------------|
||o----------------|---------------|
||--2-2-2-2-2--2-2-|-4-4-4--7-7-7--|


  S S E S E. E E. E.   S S E S E. E E. E.
|--------------------|----------------------||
|--------------------|---------------------o||
|-------9------------|-------9-------------o||
|-7-7-9---0--0-0--0--|-7-7-9---0--0-0--0----||


  E E E E Q  E E   E E Q  E E Q
|----------------|---------------|
|----------------|---------------|
|----------------|--------2-2-2--|
|-2-2-2-2-2--2-2-|-4-4-4---------|


  S S S S S S S S S S S S S S E   S S S S S S S S H
|-------------------------------|----------------------|
|-4-3-0-3-2-0-------------------|-3-2-0----------------|
|-------------4-3-0-3-2-0-------|-------3-2-0-----0----|
|-------------------------3-2-0-|-------------3-2------|


  E. E. E. E. E E   E. E. E. E. E E
|-----------------|-----------------|
|-----------------|-----------------|
|-2---------------|-3---------------|
|----0--0--0--0-0-|----0--0--0--0-0-|


  E. E. E. E. E E   E S E S S S E S E S S S
|-----------------|-------------------------|
|-----------------|-------------------------|
|-2---------------|-------------2-2-2-2-2-2-|
|----0--0--0--0-0-|-2-2-2-2-2-2-------------|


  E. E. E. E. E E   E. E. E E. E. E   E. E. E. E. E E   E. E. E. E. E E
|-----------------|-----------------|-----------------|-----------------|
|-----------------|-----------------|-----------------|-----------------|
|-2---------------|---------------0-|-2---------------|-3---------------|
|----0--0--0--0-0-|-3--2--0-2--3----|----0--0--0--0-0-|----0--0--0--0-0-|

[ Tab from: http://www.guitartabs.cc/tabs/t/twisted_sister/burn_in_hell_btab_ver_2.html ]
  E. E. E. E. E E   E. E. E E. E. E   E. E. E. E. E E   E. E. E. E. E E
|-----------------|-----------------|-----------------|--------------------|
|-----------------|-----------------|-----------------|--------------------|
|-2---------------|-2--0----2--0----|-2---------------|-3------------------|
|----0--0--0--0-0-|-------3-------3-|----0--0--0--0-0-|----0--0--0--0-0----|


  E E E E Q  E E   E E Q  E E Q    S S E S E. E E. E.   S S E S E. E E. E.
|----------------|---------------|--------------------|--------------------|
|----------------|---------------|--------------------|--------------------|
|----------------|---------------|-------9------------|-------9------------|
|-2-2-2-2-2--2-2-|-4-4-4--7-7-7--|-7-7-9---0--0-0--0--|-7-7-9---0--0-0--0--|


  E E E E Q  E E   E E Q  E E Q
|----------------|---------------|
|----------------|---------------|
|----------------|--------2-2-2--|
|-2-2-2-2-2--2-2-|-4-4-4---------|


  S S S S S S S S S S S S S S E   S S S S S S S S H
|-------------------------------|----------------------|
|-4-3-0-3-2-0-------------------|-3-2-0----------------|
|-------------4-3-0-3-2-0-------|-------3-2-0-----0----|
|-------------------------3-2-0-|-------------3-2------|


    E. E. E. E. E E   E. E. E. E. E E
||------------------|-----------------|
||o-----------------|-----------------|
||o-2---------------|-3---------------|
||-----0--0--0--0-0-|----0--0--0--0-0-|


  E. E. E. E. E E   E S E S S S E S E S S S
|-----------------|---------------------------||
|-----------------|--------------------------o||
|-2---------------|-------------2-2-2-2-2-2--o||
|----0--0--0--0-0-|-2-2-2-2-2-2---------------||


  E. E. E. E. E E   E. E. E E. E. E   E. E. E. E. E E   E. E. E. E. E E
|-----------------|-----------------|-----------------|-----------------|
|-----------------|-----------------|-----------------|-----------------|
|-2---------------|---------------0-|-2---------------|-3---------------|
|----0--0--0--0-0-|-3--2--0-2--3----|----0--0--0--0-0-|----0--0--0--0-0-|


  E. E. E. E. E E   E. E. E E. E. E   E. E. E. E. E E   E. E. E. E. E E
|-----------------|-----------------|-----------------|--------------------|
|-----------------|-----------------|-----------------|--------------------|
|-2---------------|-2--0----2--0----|-2---------------|-3------------------|
|----0--0--0--0-0-|-------3-------3-|----0--0--0--0-0-|----0--0--0--0-0----|


  E E E E Q  E E   E E Q  E E Q    S S E S E. E E. E.   S S E S E. E E. E.
|----------------|---------------|--------------------|--------------------|
|----------------|---------------|--------------------|--------------------|
|----------------|---------------|-------9------------|-------9------------|
|-2-2-2-2-2--2-2-|-4-4-4--7-7-7--|-7-7-9---0--0-0--0--|-7-7-9---0--0-0--0--|


  E E E E Q  E E   E E Q  E E Q
|----------------|---------------|
|----------------|---------------|
|----------------|--------2-2-2--|
|-2-2-2-2-2--2-2-|-4-4-4---------|


  S S S S S S S S S S S S S S E   S S S S S S S S H
|-------------------------------|----------------------|
|-4-3-0-3-2-0-------------------|-3-2-0----------------|
|-------------4-3-0-3-2-0-------|-------3-2-0-----0----|
|-------------------------3-2-0-|-------------3-2------|


    E. E. E. E. E E   E. E. E. E. E E
||------------------|-----------------|
||o-----------------|-----------------|
||o-2---------------|-3---------------|
||-----0--0--0--0-0-|----0--0--0--0-0-|


  E. E. E. E. E E   E S E S S S E S E S S S  
|-----------------|---------------------------||
|-----------------|--------------------------o||
|-2---------------|-------------2-2-2-2-2-2--o||
|----0--0--0--0-0-|-2-2-2-2-2-2---------------||
^^^^^^this is repeated and fades out until the end

im pretty sure if this isn't 100% correct its very close

Duration Legend
---------------
W - whole; H - half; Q - quarter; E - 8th; S - 16th; T - 32nd; X - 64th; a - acciaccatura
+ - note tied to previous; . - note dotted; .. - note double dotted
Uncapitalized letters represent notes that are staccato (1/2 duration)
Irregular groupings are notated above the duration line
Duration letters will always appear directly above the note/fret number it represents the
duration for.  Duration letters with no fret number below them represent rests.  Multi-
bar rests are notated in the form Wxn, where n is the number of bars to rest for.  Low
melody durations appear below the staff


Misc Legend
-----------
 |  - bar
||  - double bar
||o - repeat start
o|| - repeat end
*|  - double bar (ending)
 :  - bar (freetime)
 $  - Segno
 &  - Coda


****************************************************************************
Generated using Power Tab Editor by Brad Larsen - http://powertab.guitarnetwork.org *
****************************************************************************
Comments