Twisted Method - Mannequin Chords & Tabs

 

Mannequin Chords & Tabs

Twisted Method Chords & Tabs

Version: 1 Type: Bass Tab 0 ratings
1 star 2 stars 3 stars 4 stars 5 stars
comments

Mannequin Bass Tab

Band: Twisted Method (www.twistedmethod.com)
Song: Mannequin
Tuning: Standard 5-string

Intro
G---------------------------------------------------------------------]
D-------------------------3-2----------3-2----------3-2---------------]
A---------------------------------------------------------------------]
E---------------------------------------------------------------2h4h5-]
B--7\-2-2-2-2----2-2-2-2------3-2-2-2------3-2-2-2------3-2-2-2-------]

G-----------------------------------------------------------]
D-----------3-2----------3-2----------3-2----------------3~-]
A-----------------------------------------------------------]
E-------------------------------------------------2h4h5-----]
B--2-2-2-2------3-2-2-2------3-2-2-2------3-2-2-2-----------]

Verse 1
G-------------------------------------------------------------------]
D-------------------------------------------------------------------]
A-------------------------------------------------------------------]
E-------------------------------------------------------------------]
B--2-x-x-2-2-2-3h4h5--2-x-x-2-2-2-3h4h5--2-x-x-2-2-2-3h4h5--0-0-0-0-]

G----------------I--------------------------------------------------]
D----------------I--------------------------------------------------]
A-----------(x2)-I--------------------------------------------------]
E----------------I--9\-----------9\-----------9\--------------------]
B--1-1-1-1-------I-----2-2-3h4h5----2-2-3h4h5----2-2-3h4h5--0-0-0-0-]

G----------]
D----------]
A----------]
E----------] x2
B--1-1-1-1-]
[ Tab from: http://www.guitartabs.cc/tabs/t/twisted_method/mannequin_btab.html ]
Pre-Chorus
G---------------------I------------------------------]
D---------------------I--------3-----3~-----3-----3~-]
A---------------------I------------------------------]
E------------1~--(x3)-I------------------------------]
B--2-2h4p2-2----------I--2~--2---2-2----2-2---2-2----]
                             s p s s p  s s p s s p

G--------------------------]
D----4-----4~-----4-----4~-]
A--------------------------]
E--------------------------]
B--3---3-3----3-3---3-3----]
   s p s s p  s s p s s p

Chorus
G--------------------------------------------------------]
D--------------------------------------------------------]
A--------------------------------------------------------]
E----------2h4h5---------2h4h5---------------------2h4h5-]
B--2-2-5-5-------2-2-5-5-------5-5-7-7-4-4-2-2-5-5-------]

Verse 2
G-------------------------------------------------------------------]
D-------------------------------------------------------------------]
A-------------------------------------------------------------------]
E-------------------------------------------------------------------]
B--2-x-x-2-2-2-3h4h5--2-x-x-2-2-2-3h4h5--2-x-x-2-2-2-3h4h5--0-0-0-0-]

G----------------I--------------------------------------------------]
D----------------I--------------------------------------------------]
A-----------(x2)-I--------------------------------------------------]
E----------------I--9\-----------9\-----------9\--------------------]
B--1-1-1-1-------I-----2-2-3h4h5----2-2-3h4h5----2-2-3h4h5--0-0-0-0-]

G----------------I----------------------------------------]
D----------------I----------------------------------------]
A-----------(x2)-I----------------------------------------]
E----------------I----------------------------------------]
B--1-1-1-1-------I--2-2-2-2---2-2-2-2---2-2-2-2---2-2-2-2-]

Outro
G---------------------------------------------------------]
D-----------3-2------------------------3-2----------------]
A---------------------------------------------------------] Rpt
E-----------------------2h4h5-----------------------2h4h5-]
B--2-2-2-2------3-2-2-2-------2-2-2-2-------3-2-2-2-------]
Comments