Twisted Method - Change Me Chords & Tabs

 

Change Me Chords & Tabs

Twisted Method Chords & Tabs

Version: 1 Type: Bass Tab 0 ratings
1 star 2 stars 3 stars 4 stars 5 stars
comments

Change Me Bass Tab

Band: Twisted Method (www.twistedmethod.com)
Song: Change Me
Tuning: Standard 5-string

Intro/Chorus
G----------------------]
D----------------------]
A----------------------]
E----------8(x8)-------]
B--10(x12)-------8(x8)-]

Verse
G----------------------------------------------------]
D----------------------------------------------------]
A------------------------------------------8-8-8---8-]
E----------------------------10-10-10---10-----------]
B--10---10---10-10---10---10-------------------------]

Bridge
G--------------------------------------------------------------]
D--------------------------------------------------------------]
A--------------------------------------------------8-8-8-8---8-]
E---------------------------------10-10-10-10---10-------------]
B--10-10-10-10---10-10-10-10---10------------------------------]
[ Tab from: http://www.guitartabs.cc/tabs/t/twisted_method/change_me_btab.html ]
G-------------------------------------------------------------------]
D-------------------------------------------------------------------]
A--------------------------------------------------8-8-8------------]
E---------------------------------10-10-10-10---10------------------]
B--10-10-10-10---10-10-10-10---10-------------------------10-10-12\-]

G---------------------------------------------------]
D---------------------------------------------------]
A---------------------------------------------------] Rpt
E-----------10-10-10----------10-10-10--8(x8)-------]
B--10-10-10----------10-10-10-----------------8(x8)-]

Outro
G-----------------------------------------------]
D-----------------------------------------------]
A-----------------------------------------------]
E----------------------------8-8-8-8---8--8--8~-]
B--10-10-10-10---10-10-10-10--------------------]

Thnx for checking out my tab. Any ?'s or comments email at heretic191@yahoo.com. Plz rate this tab.
Comments