Twisted Method - 125 Chords & Tabs

 

125 Chords & Tabs

Twisted Method Chords & Tabs

Version: 1 Type: Bass Tab 0 ratings
1 star 2 stars 3 stars 4 stars 5 stars
comments

125 Bass Tab

Band: Twisted Method (www.twistedmethod.com)
Song: 125
Tuning: Standard 5-string

Intro - *1st time only
G-----------------------------------I-----------------------------]
D-----------------------------------I-----------------------------]
A---------------------------8\-(x3)-I-------------------------8~--]
E-------3-2-0-2-2--3-2-0-2----------I--3-2-0-2-2--3-2-0-2-2-------]
B--12\*-----------------------------I-----------------------------]

Verse
G------------------4-------I------]
D----4---------------------I------]
A--2---2-x-x-4-6-6----(x7)-I--2-2-]
E--------------------------I------]
B--------------------------I------]
   s p s s s s s s p          s s

Chorus
G--------------------------------I-----------------------------]
D--------------------------------I-----------------------------]
A----------------------8\-(x3)---I-----------------------------]
E--3-2-0-2-2--3-2-0-2------------I--3-2-0-2-2--3-2-0-2-2-x-x-x-]
B--------------------------------I-----------------------------]

Interlude
G--3--4-------I--4--4--4--4-]
D--2--2-------I--2--2--2--2-]
A--------(x6)-I-------------]
E-------------I-------------]
B-------------I-------------]
   p  p          p  p  p  p
[ Tab from: http://www.guitartabs.cc/tabs/t/twisted_method/125_btab.html ]
Bridge - *Only note that doesn't ring out
G------------------4~-----------------4*-]
D------------------2~-----------------2*-]
A--2-2---2--2--2-2----2-2---2--2--2-2----] x3
E----------------------------------------]
B----------------------------------------]
   s s   s  s  s s p  s s   s  s  s s p

G------------------------------------------------------------------]
D------------------------------------------------------------------]
A------------------------------------------------5-3-2-------------]
E--4-3-2--4-3-2----3-2-0-2-2--3-2-0-2-2----4-3-2---------3-2-0-2-2-]
B------------------------------------------------------------------]

G-------------------------------------------------------------------]
D-------------------------------------------------------------7-5---]
A-----------------------------------------------------------------8-]
E--3-2-0-2-2----4-3-2--4-3-2----3-2-0-2-2--3-2-0-2-2----4-3-2-------]
B-------------------------------------------------------------------]

G------------------------------------]
D------------------------------------]
A--------------------------8~--------]
E--3-2-0-2-2--3-2-0-2-2----------12\-]
B------------------------------------]

Outro
G--3--4-]
D--2--2-]
A-------] Fade out
E-------]
B-------]
   p  p

Thnx for checking out my tab. Any ?'s or comments email at heretic191@yahoo.com. Plz rate this tab.
Comments