Twista - Hope Chords & Tabs

 

Hope Chords & Tabs

Twista Chords & Tabs

Version: 4 Type: Tab 0 ratings
1 star 2 stars 3 stars 4 stars 5 stars
comments

Hope Tab

Twista - Hope



this is just repeated through out the song
tunning is regular than the other tabs for this
e|----------------------------------------------------|
B|----------------------------------------------------|
G|----------8-----------6----------6---------6--------|
D|-------9------------7---------5------5--------------|
A|----9------------7---------5------------5-----------|
E|--7-----------5---------3---------------------------|
[ Tab from: http://www.guitartabs.cc/tabs/t/twista/hope_tab_ver_4.html ]
e|----------------------------------------------------|
B|----------------------------------------------------|
G|-----------9------------11------------6-------------|
D|--------9------------12------------5-----5-----6----|
A|----9-------------12-----------5------------5-------|
E|-7------------10------------3-----------------------|

e|----------------------------------------------------|
B|----------------------------------------------------|
G|----------8-----------6----------6---------6--------|
D|-------9------------7---------5------5--------------|
A|----9------------7---------5------------5-----------|
E|--7-----------5---------3---------------------------|

e|----------------------------------------------------|
B|--------6-------8------9h11p9----------9------------|
G|------6-------8------9--------9h11p9----------------|
D|----6-------8------9------------------9-------------|
A|--4-------6------7----------------------------------|
E|----------------------------------------------------|
Comments