Twista - Hope Chords & Tabs

 

Hope Chords & Tabs

Twista Chords & Tabs

Version: 3 Type: Tab 0 ratings
1 star 2 stars 3 stars 4 stars 5 stars
comments

Hope Tab

last time i tabbed the song i did it in a confusing way and put the wrong tuning for it.
after months of emails i have finally decided to correct it.
please dont email me to say its wrong now. feel free to rate it highly

It is tuned half a step down
[ Tab from: http://www.guitartabs.cc/tabs/t/twista/hope_tab_ver_3.html ]
eb----------------------- ----0----3- -----------------------------|
Bb------1----3----1------ ---1----3-- ----1---------1----3---1-----|
Gb-----0----0----2--2-0-- ----------- ---2--2-0----0----0---2--2-0-|
Db----2----0----2----2--- --2----0--- --2----2----2----0---2----2--|
Ab---3----2----0--------- -3----2---- -0---------3----2---0--------|
Eb----------------------- ----------- -----------------------------|

eb-------------------8-8h10p8---------8--|
Bb------6----8-----10---------8h10p8-----|
Gb-----7----9------------------------9---|
Db----7----9-----10----------------------|
Ab---5----7----8-------------------------|
Eb---------------------------------------|

The bit that is separated could also be played like this:
either way sounds fine. this way just looks better.
eb-----------|
Bb----5----8-|
Gb---5----7--|
Db--5----5---|
Ab-3---------|
Eb------7----|

That should be all of it
Comments