Twista - Hope Chords & Tabs

 

Hope Chords & Tabs

Twista Chords & Tabs

Version: 1 Type: Tab 0 ratings
1 star 2 stars 3 stars 4 stars 5 stars
comments

Hope Tab

Im not a huge fan of twista but i dnt mind sum of the guitar riffs so i thought i might
put up this song as it can be found nowhere.  It might not be 100% correct but im sure
its real close.
if u see any mistakes make sure to point them out.
whili_cutta13@hotmail.com

this is played throughout the entire song
[ Tab from: http://www.guitartabs.cc/tabs/t/twista/hope_tab.html ]
E --------------------------------------------------------------------|
A -3--------2-------0------------------3-------2--------0-------------|
D ---2--------0-------2-------2----------2-------0--------2-------2---|
G -----0--------0-------2---2---0----------5----------------2---2---0-|
B -------1--------3-------1------------------5-----3----------1-------|
e ---------------------------------------------------3----------------|

E ---------------------------------------------------|
A -3--------2-------0---------------5-------7--------|
D ---2--------0-------2-------2-------7-------9------|
G -----0--------0-------2---2---0-------7-------9----|
B -------1--------3-------1---------------6-------8--|
e ---------------------------------------------------|

E ---------------------------------------------------|
A -8-------------------------------------------------|
D ---10----------------------------------------------|
G ------------------------9--------------------------|
B -----10----------8h10p8----------------------------|
e --------8-8h10p8----------8------------------------|

thats all it is to it
Comments