Twelve Stones - Broken Chords & Tabs

 

Broken Chords & Tabs

Twelve Stones Chords & Tabs

Version: 1 Type: Tab 0 ratings
1 star 2 stars 3 stars 4 stars 5 stars
comments

Broken Tab

Broken
By: 12 stones

   

              Drop D Tunning


Intro
e |---------------------------------------------------|
B |---------------------------------------------------|
G |--xxx-77-xx-777-55-33-xx-333-5--77-xx-777-101010---|
D |--xxx-77-xx-777-55-33-xx-333-5--77-xx-777—101010---|
A |--xxx-55-xx-555-33-11-xx-111-3--55-xx-555--8-8-8---|
e |---------------------------------------------------|

e |-----------------|
B |-----------------|
G |---33-xx-333-5---|
D |---33-xx-333-5---|
A |---11-xx-111-3---|
e |-----------------|


Verse 1
e|-----------------------------------------
B|-----------------------------------------
G|-----2-----------------------------------    X5
D|-0-3---3--0h2-3-0h2-3----0-3--------3--3-
A|-----------------------1------1/3-3------
D|-----------------------------------------
     for your sixth time plkaying this verse,
     go to Chorus right after (1/3) 


Chorus
e |--------------------------------------------------------                   
B |--------------------------------------------------------  
G |-xxx-77-xx-777-55-33-xx-333-5--77-xx-777-55-33-xx-333-5-                 
D |-xxx-77-xx-777-55-33-xx-333-5--77-xx-777-55-33-xx-333-5-                   
A |-xxx-55-xx-555-33-11-xx-111-3--55-xx-555-33-11-xx-111-3-                
e |--------------------------------------------------------                
                                                                                 
e |-------------------------------------------------                         
B |-------------------------------------------------                        
G |-77-xx-777-101010-33-xx-333-5--77-xx-777-101010--  
D |-77-xx-777—101010-33-xx-333-5--77-xx-777-101010-- 
A |-55-xx-555--8-8-8-11-xx-111-3--55-xx-555--8-8-8-- 
e |-------------------------------------------------  
                                                                             
e |-----------------|                                                         
B |-----------------|                                                         
G |---33-xx-333-5---|                                                         
D |---33-xx-333-5---|                                                         
A |---11-xx-111-3---| 
e |-----------------|



Verse 1
e|-----------------------------------------
B|-----------------------------------------
G|-----2-----------------------------------    X5
D|-0-3---3--0h2-3-0h2-3----0-3--------3--3-
A|-----------------------1------1/3-3------
D|-----------------------------------------
     for your sixth time plkaying this verse,
     go to Chorus right after (1/3) 

[ Tab from: http://www.guitartabs.cc/tabs/t/twelve_stones/broken_tab.html ]
Chorus
e |--------------------------------------------------------                   
B |--------------------------------------------------------  
G |-xxx-77-xx-777-55-33-xx-333-5--77-xx-777-55-33-xx-333-5-                 
D |-xxx-77-xx-777-55-33-xx-333-5--77-xx-777-55-33-xx-333-5-                   
A |-xxx-55-xx-555-33-11-xx-111-3--55-xx-555-33-11-xx-111-3-                
e |--------------------------------------------------------                
                                                                                 
e |-------------------------------------------------                         
B |-------------------------------------------------                        
G |-77-xx-777-101010-33-xx-333-5--77-xx-777-101010--  
D |-77-xx-777—101010-33-xx-333-5--77-xx-777-101010-- 
A |-55-xx-555--8-8-8-11-xx-111-3--55-xx-555--8-8-8-- 
e |-------------------------------------------------  
                                                                             
e |-----------------|                                                         
B |-----------------|                                                         
G |---33-xx-333-5---|                                                         
D |---33-xx-333-5---|                                                         
A |---11-xx-111-3---| 
e |-----------------|
           


Verse 2
e |-----------------------------------------
B |-----------------------------------------
G |---7777/1010--1212---7777/1010--99-------
D |---7777/1010—-1212---7777/1010--99-------    X4
A |---5555/-8-8--1010---5555/-8-8--77-------
e |-----------------------------------------



Verse 3
e |--------------------------------------------------------|
B |--------------------------------------------------------|
G |----------------------------------------55-33-22-33-----|
D |--00-33-22-33-55-33-22-00---00-33-22-33-----------------|   X4
A |--------------------------------------------------------|
e |--------------------------------------------------------|
    p.m. first 2 times 


Chorus
e |--------------------------------------------------------                   
B |--------------------------------------------------------  
G |-xxx-77-xx-777-55-33-xx-333-5--77-xx-777-55-33-xx-333-5-                 
D |-xxx-77-xx-777-55-33-xx-333-5--77-xx-777-55-33-xx-333-5-                   
A |-xxx-55-xx-555-33-11-xx-111-3--55-xx-555-33-11-xx-111-3-                
e |--------------------------------------------------------                
                                                                                 
e |-------------------------------------------------                         
B |-------------------------------------------------                        
G |-77-xx-777-101010-33-xx-333-5--77-xx-777-101010--  
D |-77-xx-777—101010-33-xx-333-5--77-xx-777-101010-- 
A |-55-xx-555--8-8-8-11-xx-111-3--55-xx-555--8-8-8-- 
e |-------------------------------------------------  
                                                                             
e |-----------------|                                                         
B |-----------------|                                                         
G |---33-xx-333-5---|                                                         
D |---33-xx-333-5---|                                                         
A |---11-xx-111-3---| 
e |-----------------|



   END
e |--------------------------------------------------------------                   
B |--------------------------------------------------------------
G |-xxx-77-xx-777-55-33-xx-333-5--77-xx-777-55-33-xx-333-5-7-----            
D |-xxx-77-xx-777-55-33-xx-333-5--77-xx-777-55-33-xx-333-5-7-----                
A |-xxx-55-xx-555-33-11-xx-111-3--55-xx-555-33-11-xx-111-3-5-----            
e |--------------------------------------------------------------
         Faid out on last note


By: Kyle Swann


Comments