Tweaker - Sleepwalking Away Chords & Tabs

 

Sleepwalking Away Chords & Tabs

Tweaker Chords & Tabs

Version: 1 Type: Bass Tab

Sleepwalking Away Bass Tab

   
SLEEPWALKING AWAY
Tweaker

Taken from the Waxploitation album 2 A.M. Wakeup Call (2004)

Transcribed by: Damian Pamminger (TwitcheD_85@hotmail.com)

Standard tuning: E A D G

Intro
| ---------------------------------------------------------------------------------|
|-3-3-3-3-3-3-3-3-3-3-3-3-3-3-3-3-3-3-3-3-3-3-3-3-3-3-3-3-3-3-3-3-3-3-3-3-3-3------|
| ---------------------------------------------------------------------------------|
| ---------------------------------------------------------------------------------|

| ---------------------------------------------------------------------------|
|-3-3-3-3/-6-6-6-6-6-6\------------------------------------------------------|
| ---------------------------------------------------------------------------|
| -----------------------1-1-1-1-1-1-1-1-1-1-1-1-1-1-1-1-1-1/-4-4-4-4-4-4----|

|-----------------------------------------------------|
|-----------------------------------------------------|
|-4-4-4-4-4-4-4-4-4-4-4-4-6-6-6-6-6-6-6-6-6-6-6-6-----|
|-----------------------------------------------------|

Fig. 1a
|------------------------------------------------------------------------------|
|-3--3-3-3-3-3--3-3-3-3-3-3-3-3-3-3/-6-6-6-6-6-6-3--3-3-3-3-3--3-3-3-3-3-3-----|
|------------------------------------------------------------------------------|
|------------------------------------------------------------------------------|

| ------------------------------------------------------------------------------|
|-3-3-3-3/-6-6-6-6-6-6\---------------------------------------------------------|
| ----------------------------------------------------------------------4--4-4--|
| -----------------------1--1-1-1-1--1-1-1-1-1-1-1-1-1-1/-4-4-4-4-4-4-----------|

|-------------------------------|
|-------------------------------|
|-4-4-4--4-4-4-4-6-6-6-6-6-6----|
|-------------------------------|

Fig. 1b
|--------------------------------------------------|----------|---------------|
|--------------------------------------------------|--REPEAT--|---------------|
|--------------------------------------------------|-two-more-|-4--4-4-4-4-4--|
|-1--1-1-1-1-1--1-1-1-1-1-1-1-1-1-1/-4-4-4-4-4-4-|---times---|----------------|
[ Tab from: http://www.guitartabs.cc/tabs/t/tweaker/sleepwalking_away_btab.html ]
| ------------------------------------|
| ------------------------------------|
|-4-4-4-4-4-4-4-4-4-4-6-6-6-6-6-6-----|
| ------------------------------------|

Fig. 1c
|--------------------------------------------------|----------|----------------|
|--------------------------------------------------|--REPEAT--|----------------|
|--------------------------------------------------|-two-more-|-4--4-4-4-4-4---|
|-1--1-1-1-1-1--1-1-1-1-1-1-1-1-1-1/-4-4-4-4-4-4-|---times---|-----------------|

| -------------------------------------|
| -------------------------------------|
|-4-4-4-4-4\-1-1-1-1-1-1-1-1-1-1-1-----|
| -------------------------------------|

Fig. 2a
|--------------------------------------------------------------------------|
|--------------------------------------------------------------------------|
|--------------------------------------------------------------------------|
|-4--4-4-4-4-4--4-4-4-4-4-4-4-4-4-4-3--3-3-3-3-3--3-3-3-3-3-3-3-3-3-3/-----|

|---------------------------------------------------------------------------|
|---------------------------------------------------------------------------|
| ------------------------------------4--4-4-4-4-4--4-4-4-4-4-4-4-4-4-4-----|
|-6--6-6-6-6-6--6-6-6-6-6-6-6-6-6-6-----------------------------------------|

Fig. 2b
|--------------------------------------------------------------------------|
|--------------------------------------------------------------------------|
|--------------------------------------------------------------------------|
|-4--4-4-4-4-4--4-4-4-4-4-4-4-4-4-4-3--3-3-3-3-3--3-3-3-3-3-3-3-3-3-3/-----|

|---------------------------------------------------------------------------|
|---------------------------------------------------------------------------|
|---------------------------------------------------------------------------|
|-6--6-6-6-6-6--6-6-6-6-6-6-6-6-6-6\-2--2-2-2-2-2--2-2-2-2-2-2-2-2-2-2------|

Fill
|----------------|
|----------------|
|----------------|
|-1--------------|

End
|---------------------------------- |------------|------------------|
|---------------------------------- |---REPEAT-- |------------------|
|---------------------------------- |-three-more-|------------------|
|-1--1-1-1-1--1-1-1-1-1-1-1-1-1-1-|---times----|-1------------------|