Tweaker - Movement Of Fear Chords & Tabs

 

Movement Of Fear Chords & Tabs

Tweaker Chords & Tabs

Version: 1 Type: Bass Tab

Movement Of Fear Bass Tab

MOVEMENT OF FEAR
Tweaker

Taken from the Waxploitation album 2 A.M. Wakeup Call (2004)

Transcribed by: Damian Pamminger (TwitcheD_85@hotmail.com)

Standard tuning: E A D G (Played on a fretless bass)
[ Tab from: http://www.guitartabs.cc/tabs/t/tweaker/movement_of_fear_btab.html ]
Fig. 1
|-------------------------------------------------------------------------------|
|-------------------------------------------------------------------------------|
| -----7-------7--------------9-----10--\--------7--------7--------------9--\---|
|-0------0--0----0--0-----7-----8----------0-------0--0-----0--0-----7----------|

|------|
|------|
|----5-|
|-3----|

Fill
|-------------------------------|
| ----------------------Pause---|
|------7-------7----------------|
| -0------0--0----0--0----------|

End
| ------------------------------------------ |--------|------------|
|-------------------------------------------|-REPEAT-|-Play Fill---|
| -----7--------7--------------9-----10--\--|--------|-------------|
|-0-------0--0-----0--0-----7----8--------- |--------|-------------|