Tweak - Losing My Mind Chords & Tabs

 

Losing My Mind Chords & Tabs

Tweak Chords & Tabs

Version: 1 Type: Tab 0 ratings
1 star 2 stars 3 stars 4 stars 5 stars
comments

Losing My Mind Tab

Losing my mind
Tweak
The Romantic Lure of Possom Worship
Tabbed by Greg and Mike (www.meltdown@webmail.co.za)

Intro
Guitar 1
e|----------|
B|----------|
G|----------|
D|-7/9\7~---|
A|-7/9\7~---|
E|-5/7\5~---|

Guitar 2
e|------------------------------------|
B|------------------------------------|
G|------------------------------------|
D|------------------6-6-6--4--4-4-4---|
A|-7-7-7-7-7-7-7-7--4-4-4--2--2-2-2---|
E|-5-5-5-5-5-5-5-5--------------------|

Main Part
Guitar 1
e|----------------------------|
B|----------------------------|
G|--------------6--6--4-4-4---|
D|-2--2--7-7-7--6--6--4-4-4---|
A|-2--2--7-7-7--4--4--2-2-2---|
E|-0--0--5-5-5----------------|

Guitar 2
e|---------------------|
B|---------------------|
G|-7-7--11-11-11--9~---|
D|-x-x---x--x--x--x----|
A|-5-5---9--9--9--7~---|
E|---------------------|

Pre Verse (Palm mute)
e|-----------------------------|
B|-----------------------------|
G|-----------------------------|
D|-----------------------7-7---|
A|-2--2-2-2-2-2-2-2-2-2--7-7---|
E|-0--0-0-0-0-0-0-0-0-0--5-5---|

Verse
Guitar 1 (Palm mute)
e|----------------------------------|
B|-5-5-5-5--5-5-5-5--5-5-5-5--------|
G|----------------------------------|
D|----------------------------7-7---|
A|----------------------------7-7---|
E|----------------------------5-5---|

Guitar 2 (Palm mute)
e|----------------------------------|
B|----------------------------------|
G|----------------------------------|
D|----------------------------7-7---|
A|-2-2-2-2--2-2-2-2--2-2-2-2--7-7---|
E|-0-0-0-0--0-0-0-0--0-0-0-0--5-5---|
[ Tab from: http://www.guitartabs.cc/tabs/t/tweak/losing_my_mind_tab.html ]
Pre Chorus (Palm mute)
(Now here I stand on)
e|----------------------------------------------------------------------|
B|----------------------------------------------------------------------|
G|----------------------------------------------------------------------|
D|-----------------------------------6-6-6-6-6-6-6-6--4-4-4-4-4-4-4-4---|
A|-2-2-2-2-2-2-2-2--7-7-7-7-7-7-7-7--4-4-4-4-4-4-4-4--2-2-2-2-2-2-2-2---|
E|-0-0-0-0-0-0-0-0--5-5-5-5-5-5-5-5-------------------------------------|

Chorus
Guitar 1
e|----------------------------|
B|----------------------------|
G|--------------6--6--4-4-4---|
D|-2--2--7-7-7--6--6--4-4-4---|
A|-2--2--7-7-7--4--4--2-2-2---|
E|-0--0--5-5-5----------------|

Guitar 2
e|---------------------|
B|---------------------|
G|-7-7--11-11-11--9~---|
D|-x-x---x--x--x--x----|
A|-5-5---9--9--9--7~---|
E|---------------------|

Bridge
(And all the doctors say that)
e|-----------------------------------------------------------------|
B|-----------------------------------------------------------------|
G|-----------------6-6-----4-4---------------------6-6-----4\6/4---|
D|-2-2-----7-7-----6-6-----4-4-----2-2-----7-7-----6-6-----4\6/4---|
A|-2-2-----7-7-----4-4-----2-2-----2-2-----7-7-----4-4-----2\4/2---|
E|-0-0-----5-5---------------------0-0-----5-5---------------------|

Outro
Guitar 1
e|---------------------------------------|
B|---------------------------------------|
G|--------------6--6--4-4-4--------------|
D|-2--2--7-7-7--6--6--4-4-4--2--2--7-7~--|
A|-2--2--7-7-7--4--4--2-2-2--2--2--7-7~--|
E|-0--0--5-5-5---------------0--0--5-5~--|

Guitar 2
e|---------------------------------------------------|
B|---------------------------------------------------|
G|-7-7--11-11-11--9--11-11-11--9--7-7--11-11-11--9~--|
D|-x-x---x--x--x--x---x--x--x--x--x-x---x--x--x--x---|
A|-5-5---9--9--9--7---9--9--9--7--5-5---9--9--9--7~--|
E|---------------------------------------------------|
Comments