Tweak - Inside Out Chords & Tabs

 

Inside Out Chords & Tabs

Tweak Chords & Tabs

Version: 1 Type: Tab 0 ratings
1 star 2 stars 3 stars 4 stars 5 stars
comments

Inside Out Tab

Inside Out
Tweak
Dirty Sanchez and the Misfit Kidz
Tabbed By: Mike

Intro
e|---------------------------|
B|---------------------------|
G|---------------------------|
D|----x-x--6-7--x-x--x-7-9---|
A|-7--x-x--4-5--x-x--x-5-7---|
E|-5-------------------------|

Verse (Palm mute some parts)
e|--------------------------------|
B|--------------------------------|
G|--------------------------------|
D|-------------6------7-------9---|
A|-----7-----4-----5----5---7-----|
E|-5-5---5------------------------|

(Palm mute)
e|--------------------------------------|
B|--------------------------------------|
G|--------------------------------------|
D|----------6-6-6-6--7-7-7-7--9-9-9-9---|
A|-7-7-7-7--4-4-4-4--5-5-5-5--7-7-7-7---|
E|-5-5-5-5------------------------------|

(It's time to move along)
e|--------------------------------------|
B|--------------------------------------|
G|----------6-6-6-6--7-7-7-7--9-9-9-9---|
D|-7-7-7-7--6-6-6-6--7-7-7-7--9-9-9-9---|
A|-7-7-7-7--4-4-4-4--5-5-5-5--7-7-7-7---|
E|-5-5-5-5------------------------------|

Pre Chorus
e|------------------------------------|
B|------------------------------------|
G|---------6-6-----7-7-7-7--9-9-9-9---|
D|-7-7-----6-6-----7-7-7-7--9-9-9-9---|
A|-7-7-----4-4-----5-5-5-5--7-7-7-7---|
E|-5-5--------------------------------|

Chorus
Guitar 1
e|--------------------------------|
B|--------------------------------|
G|--------------------------------|
D|-------------6------7-------9---|
A|-----7-----4-----5----5---7-----|
E|-5-5---5------------------------|
[ Tab from: http://www.guitartabs.cc/tabs/t/tweak/inside_out_tab.html ]
Guitar 2
e|----------------------------------|
B|----------------------------------|
G|---------6--6-6--7--7-7--9--9-9---|
D|-7--7-7--6--6-6--7--7-7--9--9-9---|
A|-7--7-7--4--4-4--5--5-5--7--7-7---|
E|-5--5-5---------------------------|

Bridge
e|----------------------------------------------------------------------|
B|----------------------------------------------------------------------|
G|-----------------------------------6-6-6-6-6-6-6-6--6-6-6-6-6-6-6-6---|
D|-7-7-7-7-7-7-7-7--7-7-7-7-7-7-7-7--6-6-6-6-6-6-6-6--6-6-6-6-6-6-6-6---|
A|-7-7-7-7-7-7-7-7--7-7-7-7-7-7-7-7--4-4-4-4-4-4-4-4--4-4-4-4-4-4-4-4---|
E|-5-5-5-5-5-5-5-5--5-5-5-5-5-5-5-5-------------------------------------|

e|----------------------------------------------------------------------|
B|----------------------------------------------------------------------|
G|-7-7-7-7-7-7-7-7--7-7-7-7-7-7-7-7--9-9-9-9-9-9-9-9--9-9-9-9-9-9-9-9---|
D|-7-7-7-7-7-7-7-7--7-7-7-7-7-7-7-7--9-9-9-9-9-9-9-9--9-9-9-9-9-9-9-9---|
A|-5-5-5-5-5-5-5-5--5-5-5-5-5-5-5-5--7-7-7-7-7-7-7-7--7-7-7-7-7-7-7-7---|
E|----------------------------------------------------------------------|

e|----------------------------------------|
B|----------------------------------------|
G|------------------6-6-6-6--7-7-7-7--9---|
D|-7-7-7-7-7-7-7-7--6-6-6-6--7-7-7-7--9---|
A|-7-7-7-7-7-7-7-7--4-4-4-4--5-5-5-5--7---|
E|-5-5-5-5-5-5-5-5------------------------|

Interlude
Guitar 1
e|----------------------|
B|----------------------|
G|----------------------|
D|----------------------|
A|------4-5--x-5-5--7---|
E|-5--5-----------------|

Guitar 2
e|----------------------------|
B|----------------------------|
G|--------9-10--x-10-10--12---|
D|-10--10---------------------|
A|----------------------------|
E|----------------------------|
Comments