Tweak - Girls Rule The World Chords & Tabs

 

Girls Rule The World Chords & Tabs

Tweak Chords & Tabs

Version: 1 Type: Bass Tab 0 ratings
1 star 2 stars 3 stars 4 stars 5 stars
comments

Girls Rule The World Bass Tab

Girls Rule The World
Tweak
Dirty Sanchez and the Misfit Kids
Tabbed By Greg (meltdown@webmail.co.za)

Intro
G|-----------------------------------|
D|-----------------------------------|
A|-------------------6-6---3-5-6-8---|
E|-6-6--x-x--6-6--6------------------|

Interlude
G|--------------------------------------------|
D|--------------------------------------------|
A|-----------------------6-6-6-6-x--6-6-6-6---|
E|-6-6-6-6-x--6-6-6-6-x-----------------------|

Verse
G|-------------------------------------|
D|-------------------------------------|
A|---------------------6-6---3-5-6-8---|
E|-6-6--x-x--6-6--x-x------------------|

Pre Chorus
G|------------------------------------|
D|------------------------------------|
A|------------------6-6-6-6-6-6-6-6---|
E|-6-6-6-6-6-6-6-6--------------------|
[ Tab from: http://www.guitartabs.cc/tabs/t/tweak/girls_rule_the_world_btab.html ]
Chorus
G|--------------------------------------------|
D|--------------------------------------------|
A|-----------------------6-6-6-6-x--6-6-6-6---|
E|-6-6-6-6-x--6-6-6-6-x-----------------------|

Pre Verse
G|-------------------------------------|
D|-------------------------------------|
A|---------------------6-6---3-5-6-8---|
E|-6-6--x-x--6-6--x-x------------------|

Bridge
G|-----------------------------------|
D|-----------------------------------|
A|-------------------6-6---3-5-6-8---|
E|-6-6--x-x--6-6--6------------------|

G|------------------------------------|------------|
D|------------------------------------|------------|
A|------------------6-6-6-6-6-6-6-6---|------------|
E|-6-6-6-6-6-6-6-6--------------------|-6-6--6-6---|

Outro
G|--------------------------------------------|
D|--------------------------------------------|
A|-----------------------6-6-6-6-x--6-6-6-6---|
E|-6-6-6-6-x--6-6-6-6-x-----------------------|

Play Hard, Have Fun!!!
Comments