Tweak - Friends Chords & Tabs

 

Friends Chords & Tabs

Tweak Chords & Tabs

Version: 2 Type: Tab 0 ratings
1 star 2 stars 3 stars 4 stars 5 stars
comments

Friends Tab

Friends
Tweak
The Romantic Lure of Possom Worship
Tabbed By: Mike

Intro
Guitar 1
e|---------------------------------------------|
B|---------------------------------------------|
G|-10-10-10-10-----------7-7-7-7---------------|
D|-10-10-10-10--7-7-7-7--7-7-7-7--8-8--10-10---|
A|--8--8--8--8--7-7-7-7--5-5-5-5--8-8--10-10---|
E|--------------5-5-5-5-----------6-6---8--8---|

Guitar 2
e|-----------------------------------------------|
B|-----------------------------------------------|
G|-----------------------------------------------|
D|-10-7--10-7--5-3--5-7---10-7--10-7--5-3--5-3---|
A|-----------------------------------------------|
E|-----------------------------------------------|

Pre Verse
e|----------------------------8--------|
B|-8--5-6---8--5-6---8--5-6------5-6---|
G|-------------------------------------|
D|-------------------------------------|
A|-------------------------------------|
E|-------------------------------------|

Verse
e|---------------|
B|---------------|
G|-10-10-10-10---|
D|-10-10-10-10---|
A|--8--8--8--8---|
E|---------------|
[ Tab from: http://www.guitartabs.cc/tabs/t/tweak/friends_tab_ver_2.html ]
e|-------------------------------------------|
B|------10-----------10----------------------|
G|---10----10------9----9-------10------10---|
D|--------------7-----------7-8-----7-8------|
A|-8-----------------------------------------|
E|-------------------------------------------|

Chorus
e|---------------------------------------------|
B|---------------------------------------------|
G|-10-10-10-10-----------7-7-7-7---------------|
D|-10-10-10-10--7-7-7-7--7-7-7-7--8-8--10-10---|
A|--8--8--8--8--7-7-7-7--5-5-5-5--8-8--10-10---|
E|--------------5-5-5-5-----------6-6---8--8---|

Bridge
e|-----------------------------------------|
B|-----------------------------------------|
G|-10--10-10----------7--7-7---------------|
D|-10--10-10--7--7-7--7--7-7--8-8--10-10---|
A|--8---8--8--7--7-7--5--5-5--8-8--10-10---|
E|------------5--5-5----------6-6---8--8---|

Outro
Guitar 1
e|----------------------------8--------|
B|-8--5-6---8--5-6---8--5-6------5-6---|
G|-------------------------------------|
D|-------------------------------------|
A|-------------------------------------|
E|-------------------------------------|

Guitar 2
e|---------------------------------------------|
B|---------------------------------------------|
G|-10-10-10-10-----------7-7-7-7---------------|
D|-10-10-10-10--7-7-7-7--7-7-7-7--8-8--10-10---|
A|--8--8--8--8--7-7-7-7--5-5-5-5--8-8--10-10---|
E|--------------5-5-5-5-----------6-6---8--8---|
Comments