Tweak - Friends Chords & Tabs

 

Friends Chords & Tabs

Tweak Chords & Tabs

Version: 1 Type: Tab 0 ratings
1 star 2 stars 3 stars 4 stars 5 stars
comments

Friends Tab

This is pretty much right. 
verse and chorus.
listen to the song to figure out the strumming

------------------------
------------------------
---10---------7---------
---10-----7---7---8--10-
---8------7---5---8--10-
----------5-------6--8--

lead bit at the beginning

------------------- -----------------
------------------- -----------------
----5---5---------- --5---5----------
------7--7--5-3-5-7 ---7---7-5-3-5-3-
------------------- -----------------
------------------- -----------------
[ Tab from: http://www.guitartabs.cc/tabs/t/tweak/friends_tab.html ]
----------------------------9--------------
-9-6-7----9-6-7----9-6-7------6-7 let ring-
-------------------------------------------
-------------------------------------------
-------------------------------------------
-------------------------------------------


other lead bit X 2
(and you, think im some kind of freaK)
---------- -------- --------- ---------
---10----- ---10--- ---7----- ---6-----
------10-- ------9- --------- ---------
---------- -7------ -----7--- -8---7-8-
-8-------- -------- -5------- ---------
---------- -------- --------- ---------

the bass is
---------------------------------
---------------------------------
-8888-------5555-----------------
------5555-------6-8-------------


The song starts of with guitar playing the top bit 3 times. On the second time
the lead starts. from the third time through the verse it is just bass with lead.
The chorus is played with guitar and bass.

If you liked this tab, please pass on to another site so that tweak can get known better.
Comments