Tweak - Friends Chords & Tabs

 

Friends Chords & Tabs

Tweak Chords & Tabs

Version: 1 Type: Bass Tab 0 ratings
1 star 2 stars 3 stars 4 stars 5 stars
comments

Friends Bass Tab

Buy the world
Tweak
The Romantic Lure of Possum Worship
Tabbed by Michael and Greg (meltdown@webmail.co.za)

Intro
G|--------------------------------------|
D|--------------------------------------|
A|-7-7-7-7------------------------------|
E|----------4-4-4-4--5-5-5-5--7-7-7-7---|
[ Tab from: http://www.guitartabs.cc/tabs/t/tweak/friends_btab.html ]
Verse
G|--------------------------------------|
D|--------------------------------------|
A|-7-7-7-7------------------------------|
E|----------4-4-4-4--5-5-5-5--7-7-7-7---|

Chorus
G|----------------------------------------------------------|
D|----------------------------------------------------------|
A|-7-7-7-7-7-7-7-7------------------------------------------|
E|------------------4-4-4-4-4-4-4-4--5-5-5-5-5-5-5-5--7-7---|

Bridge
G|--------------------|
D|--------------------|
A|-7-7-7-7------------|
E|----------4-5-7-5---|
Comments