Twarres - Wer Bisto Chords & Tabs

 

Wer Bisto Chords & Tabs

Twarres Chords & Tabs

Version: 2 Type: Tab 0 ratings
1 star 2 stars 3 stars 4 stars 5 stars
comments

Wer Bisto Tab

Twarres - Wer Bisto

Tabbed by SkarlaDav
  

That's what I found playing it in the same time I listened!
If you don't agree, just correct it!  
[ Tab from: http://www.guitartabs.cc/tabs/t/twarres/wer_bisto_tab_ver_2.html ]
e:-----2----2-----|-----------------|----------------|----------------|
b:-------5~---3---|-------2/3/2-----|----------2-----|-------5~-----5-|
g:---2----------2-|-----4-------4---|-------2~---2---|-----2----2-----| 
d:-0--------------|---4-----------4-|-----4--------4-|---2--------2---|
a:----------------|-2---------------|---4------------|-0--------------|
E:----------------|-----------------|-2--------------|----------------|

e:-----2----2-----|-----------------|----------------|----------------|
b:-------5~---3---|-------2/3/2-----|----------2-----|-------5~-----5-|
g:---2----------2-|-----4-------4---|-------2~---2---|-----2----2-----| 
d:-0--------------|---4-----------4-|-----4--------4-|---2--------2---|
a:----------------|-2---------------|---4------------|-0--------------|
E:----------------|-----------------|-2--------------|----------------|
Comments