Twang - Open Your Eyes Chords & Tabs

 

Open Your Eyes Chords & Tabs

Twang Chords & Tabs

Version: 1 Type: Tab 0 ratings
1 star 2 stars 3 stars 4 stars 5 stars
comments

Open Your Eyes Tab

THIS SONG IS THE HARDEST SONG IN THE WHOLE WORLD BECAUSE THEY TABED IT FOR
ME I DID NOT TAB THIS SONG... THIS SONG IS THE BEST!!!!!!!!!!!!!!!!!!!!!!!!!
TITLE/OPEN YOUR EYES
ALBUM/NEVER REALLY
TAB BY/TWANG
INTRO...........do it realy really really really really fast
E---x-----8----0--7--6--------0-----------...8-----------------|
B---x-----5----0--x---6-------0----------------9---------------|
G---x/3---6----0-----6--------0--------------x-----------------|
D----3----x----0--------9-----0--------------x-----------------|
A---/h4---/9---0--------------0-----------------2-2/6----------|
E----x----x----------0/8/9/5--0/7/8/19-----6/8-----------------|x5
[ Tab from: http://www.guitartabs.cc/tabs/t/twang/open_your_eyes_tab.html ]
E---x--x-xx--x--5---6-----*9---------4----x--------------------|
B---x--x-x---x--x------6---4----x----5----x------2-------------|
G---x--x-x------x-----8-------x---4--5----x---9-3--5^5^7^8-----|
D---x--x-x------6/9---------x--------1----x--------------------|
A---x----x------x/6-------------------0---x--6-----------------|
E---x----x------x--------------------3-------------------------|
SOLO BIT
E--6--3----------------------------------------18-----17-17-21--15-|
B-------19-----6------------%%%%%%%%%------3^---18---19-17-17--10--|
G---6#-----1^--9(--5--5-)----------*9--------12^--18----19---------|
D-------7*-4^------------------------------------------------------|
A---20^4^----------------------------------------------------------|
E------------------------------------------------------------21^---|
Comments