Twang - Another Day Chords & Tabs

 

Another Day Chords & Tabs

Twang Chords & Tabs

Version: 1 Type: Tab 0 ratings
1 star 2 stars 3 stars 4 stars 5 stars
comments

Another Day Tab

ARTIST=TWANG                ...fade out    ALBUM=NEVER REALLY
TABBER-TWANG
SONG/TITLE=ANOTHER DAY      : REAPEAT   TABBER=TWANG
TUNE=STANDARD               ~SHIVER
intro heavy distorcion
E-----------------------------------------------------------|
B-----------------------------------------------------------|
G-----------------------------------------------------------|
D--------------0--------------------------------------------|
A----0-2-3-2-0---0-2-3-2-0----------------------------------|
E--------------------------3-...----------------------------|x8
GUITAR 2  START WHEN INTRO GOES x2
E-------3---2-------3------------------------------------------|
B-------0---3--1----0------------------------------------------|
G-------0---2--0----0------------------------------------------|
D-------0------2----0------------------------------------------|
A-------2------3----2------------------------------------------|
E-------3------0----3------------------------------------------|x6
CHORUS HEAVY DISTORCION
E-------------------------------------------------------------|
B-------------------------------------------------------------|
G-------------------------------------------------------------|
D------------4--6-6-xx-4---6-6-4-4-3-4-3-6--------------------|
A------4-xx--2--4-4-xx-2-4-4-4-2-2-1-2-1-4--------------------|
E------2-xx--------------2------------------------------------|x3
SOLO PARTS
E-------------------------------------------------------------|
B-------------------------------------------------------19~~~-|
G-----------------------9~~~---------17-19~~~--------17-------|
D----------7-9~~~-------7-------17-19--------x2-17-19---------|
A-------7-9----x2-7-9------x2---------------------------------|
E-------------------------------------------------------------|
[ Tab from: http://www.guitartabs.cc/tabs/t/twang/another_day_tab.html ]
Comments