Tutone Tommy - Jenny 867 Chords & Tabs

 

Jenny 867 Chords & Tabs

Tutone Tommy Chords & Tabs

Version: 1 Type: Tab 2 ratings
1 star 2 stars 3 stars 4 stars 5 stars
comments

Jenny 867 Tab

   
Artist: Tommy Tutones
Song: 867-5309 (Jenny)
Tuning: 1/2 step up (F-A#-D#-G#-C-F)
Tabbed By: Kevin Zmetra

											    4x
||-----------------0------------------0-------------------0-----------------0----------------------||   Riff A
||-----------5-----------------5-------------------5------------------4----------4-----------------||
||*-----6-----------------7------------------6-------------------4--------------------4-----------*||
||*-----------------------------------------------------------------------------------------------*||
||-------------------------------------------------------------------------------------------------||
||-------------------------------------------------------------------------------------------------||

First Verse:
			
							           Repeat Throughout
||-------------------------------------------------------------------||
||-------------------------------------------------------------------||   Riff B
||*------------------7-----7----------------------------------------*||
||*--4-----4--------7-----7-------7-----7--------9-----9------------*||
||---4-----4--------5-----5-------7-----7--------9-----9-------------||
||---2-----2-----------------------5-----5--------7-----7------------||




Jenny, Jenny, who can I turn to
You give me something I can hold on to

"I can hold on to"
	       	|------------------------------------------------------------|     Riff C
		|------------------------------------------------------------|
		|------------------------------------------------------------|
		|-------13---13/11---10--------------------------------------|
		|-------13---13/11---10---11---/11---11---13---13------------|
		|-------------------------11---/11---11---13---13------------|

w/ Riff A
I know you think I'm like the others before
Who saw your name and number on the wall



Pre-Chorus

Jenny I got your number, I need to make you mine,              Jenny don't change your number
     [-----p.m.------]     [p.m.]                                [-p.m.-]
|----------------------------------------------------------------------------------------------------------------------------|
|----------------------------------------------------------------------------------------------------------------------------|
|-------------------------------------------------7--------------------------------------------------------------------|
|--2---2-2-2-2-2-2-2-2---2---2-2-----7------------7--------2-----2-2-2-2-------------------------------------------|
|--2---2-2-2-2-2-2-2-2---2---2-2-----7------------5--------2-----2-2-2-2---/5--------4------0----2---------------|
|--0---0-0-0-0-0-0-0-0---0---0-0-----5---------------------0-----0-0-0-0------------------------------------------|


Chorus  (Riff B)

867-5309
867-5309
867-5309
867-5309


Second Verse: Riff B
Jenny, Jenny your the girl for me
You don't know me but you make me so happy

Riff C then Riff A
I tried to call you before, but I lost my nerve
I tried my imagination, but I was disturbed
 
Repeat Pre-Chorus

Repeat Chorus

Bridge
					2x
||-----------------------------------------||
||-----------------------------------------||
||*-----6-----------------2----4----------*||
||*-----6-----2-----4-----2----4----------*||
||------4-----2-----4-----0----2-----------||
||------------0-----2----------------------||
[ Tab from: http://www.guitartabs.cc/tabs/t/tutone_tommy/jenny_867_tab.html ]
I got it      I got it I got your number on the wall
      (I got it)      (I got your number on the wall)

I got it      I got it  For a good time, for a good time call
     (I got it)        (For a good time, for a good time call)

Riff A 4x

Solo

|----------------------------------------------------------------------------------------------------------------------------|
|----------------------------------------------------------------------------------------------------------------------------|
|----------------------------------------------------------------------------------------------------------------------------|
|--------------------------------------------------------------------------13---13----------13-----15p13----15p13------------|
|----13^1/4---15--p--11-----------------------11-----------13/15----------------15-------------------------------------------|
|------------------------------13----11---13-----------11--------------------------------------------------------------------|

|----------------------------------------------------------------------------------------------------------------------------|
|----------------------------------------------------------------------------------------------------------------------------|
|--------13-----------15^17^15---13---15-----------13------------------------------------------------------------------------|
|-15-----------13--------------------------------15-----------13----15-----------13------------------------------------------|
|------------------------------------------------------------------------------16-----------14^1/4^rp---12---14/16-----------|
|----------------------------------------------------------------------------------------------------------------------------|

|----------------------------------------------------------------------------------------------------------------------------|
|--------------------------------------------14-----17------17/19----19~~~~~~~\----------------------------------------------|
|----------16--------------14-----16-----------------------------------------------------------------------------------------|
|--14-------------16---------------------------------------------------------------------------------------------------------|
|----------------------------------------------------------------------------------------------------------------------------|
|----------------------------------------------------------------------------------------------------------------------------|

Pre-chorus: w/ pre chorus riff
Jenny I got your number         I need to make you mine                               Jenny I'll call your number
|----------------------/24---24~~~~~~-----------------19---17----------19p17-------------------------------------------------|
|----------------------------------------------------------------20-------------20p17----------------------------------------|
|----------------------------------------------------------------------------------------------------------------------------|
|----------------------------------------------------------------------------------------------------------------------------|
|----------------------------------------------------------------------------------------------------------------------------|
|----------------------------------------------------------------------------------------------------------------------------|



Repeat Chorus & fade




Comments