Turtles - Happy Together Chords & Tabs

 

Happy Together Chords & Tabs

Turtles Chords & Tabs

Version: 1 Type: Tab 0 ratings
1 star 2 stars 3 stars 4 stars 5 stars
comments

Happy Together Tab

-----------------------------------------------------------------------------
                    Happy Together (intro) - Turtles
-----------------------------------------------------------------------------

Tabbed by:Mikey Macias
Email:Nirvana383@aol.com
[ Tab from: http://www.guitartabs.cc/tabs/t/turtles/happy_together_tab.html ]
Intro:
e|--------5-4-2--------2------2-------------------------|
B|----------------------(2)-5---------------------------|
G|------------------------------------------------------|
D|---4------------4-------------------------------------|
A|-4--(4)-------4--(4)----------------------------------|
E|------------------------------------------------------|
Comments