Turn - Beretta Chords & Tabs

 

Beretta Chords & Tabs

Turn Chords & Tabs

Version: 1 Type: Tab 0 ratings
1 star 2 stars 3 stars 4 stars 5 stars
comments

Beretta Tab

   
#----------------------------------PLEASE NOTE---------------------------------#
#This file is the author's own work and represents their interpretation of the #
#song. You may only use this file for private study, scholarship, or research. #
#------------------------------------------------------------------------------#

Artist: Turn
Track: Beretta
Album: Antisocial
Tabbed by: Robert Corcoran

I’ve seen some poor attempts at this but fear not I’ll try to make amends enjoy…
 
Verse 1: Electric guitar (clean)
e----------------------------------------------------------------------|
b----------------------------------------------------------------------|
g----------------------------------------------------------------------|
d----------------------------------------------------------------------|
a-4-4-4-4-4-4-4-4-----------------0-0-0-0-0-0-0-0----------------------|
e-----------------2-2-2-2-2-2-2-2-----------------4-4-4-4-4-4-4-4-4----|

Sometimes Ollie throws in this little progression at the end…
e----------------------------------------------------------------------|
b----------------------------------------------------------------------|
g----------------------------------------------------------------------|
d----------------------------------------------------------------------|
a-4-4-4-4-4-4-4-4-----------------0-0-0-0-0-0-0-0-----------2-2-2------|
e-----------------2-2-2-2-2-2-2-2-----------------4-4-4-4-4------------|

Chorus: Repeat what’s inside the lines twice… 

WHY CAN’T YOU LOOK AFTER YOURSELF…
         F#               E    C#m
e--------2----------------0---|-----------------------------------------|
b--------2----------------0---|-5-5-------------------------------------|
g--------3----------------1---|-6-6--9-9-11-11-12-12-11-11-11-11-9-9-9-9|
d--------4----------------2---|-6-6--x-x-x--x--x--x--x—-x--x--x--x-x-x-x|
a--------4----------------2---|-4-4--7-7-9--9--10-10-9—-9--9--9--7-7-7-7|
e--------2----------------0---|-----------------------------------------|

…cuz it’s always you and me…

Post Chorus: 
e-16----16----16----16--------|
b----14----14----14----14-----|
g-----------------------------|
d-----------------------------|
a-----------------------------|
e-----------------------------|

[ Tab from: http://www.guitartabs.cc/tabs/t/turn/beretta_tab.html ]
Verse 2:
e----------------------------------------------------------------------|
b----------------------------------------------------------------------|
g----------------------------------------------------------------------|
d-3-3-3-3-3-3-3-3------------------------------------------------------|
a-4-4-4-4-4-4-4-4-4-4-4-4-4-4-4-4-4-4-4-4-4-4-4-4-3-3-3-3-3-3-3-3-3----|
e-----------------2-2-2-2-2-2-2-2-5-5-5-5-5-5-5-5-4-4-4-4-4-4-4-4-4----|

Last time play it this way…
e----------------------------------------------------------------------|
b----------------------------------------------------------------------|
g----------------------------------------------------------------------|
d-3-3-3-3-3-3-3-3------------------------------------------------------|
a-4-4-4-4-4-4-4-4-4-4-4-4-4-4-4-4-7-7-7-7-7-7-7-7-3-3-3-3-3-3-3-3-3----|
e-----------------2-2-2-2-2-2-2-2-5-5-5-5-5-5-5-5-4-4-4-4-4-4-4-4-4----|

Chorus 2 is the same as chorus 1 except instead of a post chorus there’s this…
e|-------------------------------|  |e-----------------------------------| 
b|-------------------------------|  |b-9-9-9-9-9-9-9-9-7-7-7-7-7-7-7-7---|
g|9-9-9-9-9-9-9-9-8-8-8-8-8-8-8-8|x2|g-9-9-9-9-9-9-9-9-8-8-8-8-8-8-8-8---|x2
d|-------------------------------|  |d-----------------------------------|
a|-------------------------------|  |a-----------------------------------|
e|-------------------------------|  |e-----------------------------------|

Then Guitar 1 plays this twice   Guitar 2 plays this over it and continues over…
e|-------------------------|     |e-16----16----16----16----16----|
b|-5-5---------------------|     |b----14----14----14----14----14-|
g|-6-6--9-9-11-11-12-12-12-|     |g-------------------------------|
d|-6-6--x-x-x--x--x--x--x—-|     |d-------------------------------|
a|-4-4--7-7-9--9--10-10-10-|     |a-------------------------------|
e|-------------------------|     |e-------------------------------|


WHY CAN’T YOU LOOK AFTER YOURSELF…

Then play the chorus twice before returning to this…
e|-------------------------|     |e-16----16----16----16----16----|
b|-5-5---------------------|     |b----14----14----14----14----14-|
g|-6-6--9-9-11-11-12-12-12-|     |g-------------------------------|
d|-6-6--x-x-x--x--x--x--x—-|     |d-------------------------------|
a|-4-4--7-7-9--9--10-10-10-|     |a-------------------------------|
e|-------------------------|     |e-------------------------------|

This is played a few times and it ends like…
e|-------------------------|     
b|-5-5---------------------|
g|-6-6--9-9-9-11-----------|    
d|-6-6--x-x-x-x------------|    
a|-4-4--7-7-7-9------------|     
e|-------------------------|    
Why can’t you look out?

And that’s about it. If there are any corrections, gifts or good-looking sisters for me you can contact me via my e-mail: inthenameofbob@hotmail.com. Grá mor, peace out…
Comments