Turin Brakes - Underdog Solo Chords & Tabs

 

Underdog Solo Chords & Tabs

Turin Brakes Chords & Tabs

Version: 1 Type: Tab 0 ratings
1 star 2 stars 3 stars 4 stars 5 stars
comments

Underdog Solo Tab

HERE IS THE SOLO TO UNDERDOG BY TURIN BRAKES

                                           BEND                                          
E-----7-------------------10----------10----10-----12--12--12-
B---7---10--7-10/12---12------12--12--------------------------
G-------------------------------------------------------------
D-------------------------------------------------------------
A-------------------------------------------------------------
E-------------------------------------------------------------


E-------------------------------------------------------------
B---10--------------------------------------------------------
G-------9/7-----7-----9--7------------------------------------
D------------9-----9-------9--7-----------------------------9-
A---------------------------------9--8-7-5----5--7-----7-----
E------------------------------------------7---------7--------

[ Tab from: http://www.guitartabs.cc/tabs/t/turin_brakes/underdog_solo_tab.html ]
G-----------------------------------------9---
D--11-12-11-9-11-12-11-9-11-12-11-9-11-12-----


G-11-12-11-9-11-12-11-9-11-12-11-9-11-12------
D---------------------------------------------


E-----10----------------------10-----12/14--12--10------12/14--
B--10----------10--12--10/12-----12-----------------12---------
G--------11-12-------------------------------------------------


E--12--10------12/14---12--10----------------
B----------12--------------------------------



E-----12/14--12--10------12/14--12--10------12/14--12--10------
B--12----------------12-----------------12-----------------12--
G--------------------------------------------------------------
D--------------------------------------------------------------


E-----------------------------------------
B--108-----------------------------------
G--------9--11--9----7----7---------------
D-----------------------9-------9---------
Comments