Turin Brakes - The Door Chords & Tabs

 

The Door Chords & Tabs

Turin Brakes Chords & Tabs

Version: 2 Type: Tab 0 ratings
1 star 2 stars 3 stars 4 stars 5 stars
comments

The Door Tab

   
##################################################################################
# This file is the author's own work and represents their interpretation of the  #
# song. You may only use this file for private study, scholarship, or research.  #
##################################################################################

Turin Brakes - The Door


         E, A/D, C

e--------0---0---0-
b--------0---2---1-
g--------1---2---0-
D--------2---0---2-
A--------2---0---3-
E--------0---------

intro

e--2/3--3-2-0-------2/3--2h3/5--3-2------0-2------
b-------------2-0-------------------2--2----------
g-----------------2-------------------------------
D-------------------------------------------------
A-------------------------------------------------
E-------------------------------------------------

Slide intro

e--12--12\7--7/9---14\12--7/9---------
b-------------------------------------
g-------------------------------------
D-------------------------------------
A-------------------------------------
E-------------------------------------


Solo - Normal Tuning (with slide bits in background)
[ Tab from: http://www.guitartabs.cc/tabs/t/turin_brakes/the_door_tab_ver_2.html ]
e------12----12----12----12------9----9----9-10-9------12----12-15-14-12---------9---------17---------
b-9/12----12----12----12-----/10---10---10---------/12----12-------------12--/10---10--/17------------
g-----------------------------------------------------------------------------------------------------
D-----------------------------------------------------------------------------------------------------
A-----------------------------------------------------------------------------------------------------
E-----------------------------------------------------------------------------------------------------

e-----------------------------------------------------------------------
b--8------------8------------------10---10--8---------------------------
g----9----7-9-----9---7-9---12\7/9----9-------9---7-9-------------------
D------9------9-----9---------------------------9-----------------------
A-----------------------------------------------------------------------
E-----------------------------------------------------------------------

e---------------------------------9-10-9-/12---
b--8------------8--------------10--------------
g----9----7-9-----9---7-9---/9-----------------
D------9------9-----9--------------------------
A----------------------------------------------
E----------------------------------------------



Thanks to Harry for gettin me this album. 
Comments