Turbonegro - Zillion Dollar Sadist Chords & Tabs

 

Zillion Dollar Sadist Chords & Tabs

Turbonegro Chords & Tabs

Version: 1 Type: Tab 0 ratings
1 star 2 stars 3 stars 4 stars 5 stars
comments

Zillion Dollar Sadist Tab

   
Zillion Dollar Sadist by Turbonegro.
Tabbed by Audun "Spaken" Spachmo 
fikogdeng@yahoo.no


The high E-string was missing so I had to do without it.
What is under the ( ) is played as it says in them.

Intro:   Guitar A
e-------------------------------------------------------
b-------------------------------------------------------
g-------------------------------------------------------
d--4-4-4-4-4-4-4-4--4-4-4-4-4-4--4-4-4-4-4-4---7-7------
a--4-4-4-4-4-4-4-4--4-4-4-4-4-4--4-4-4-4-4-4---7-7------
e--2-2-2-0-2-0-2-2--2-0-2-0-2-2--2-0-2-0-2-2---5-5------


VERSE:
I used to be...welfare stoner
e-------------------------------------------------------
b-------------------------------------------------------
g--------------7-9--------------------------------------
d-4-4-4-4-4-4--7-9---4-4-4-4-4-4-4-4-4--4-4-4-----------
a-4-4-4-4-4-4--5-7---4-4-4-4-4-4-4-4-4--4-4-4-----------
e-2-2-2-0-2-0--------2-2-2-0-2-0-2-2-2--0-2-0-----------

I used to be...twilight zoner
e-------------------------------------------------------
b-------------------------------------------------------
g--------------7-9--------------------------------------
d-4-4-4-4-4-4--7-9---4-4-4-4-4-4-4-4-4---7-7------------
a-4-4-4-4-4-4--5-7---4-4-4-4-4-4-4-4-4---7-7------------
e-2-2-2-0-2-0--------2-2-2-0-2-0-2-2-2---5-5------------

I used to be..moneybumming boozer 
e-------------------------------------------------------
b-------------------------------------------------------
g--------------7-9--------------------------------------
d-4-4-4-4-4-4--7-9---4-4-4-4-4-4-4-4-4-4-4-4------------
a-4-4-4-4-4-4--5-7---4-4-4-4-4-4-4-4-4-4-4-4------------
e-2-2-2-0-2-0--------2-2-2-0-2-0-2-2-2-0-2-0------------

I used to be...masochistic schmoozer
e-------------------------------------------------------
b-------------------------------------------------------
g--------------7-9--------------------------------------
d-4-4-4-4-4-4--7-9---4-4-4-4-4-4-4-4-4------------------
a-4-4-4-4-4-4--5-7---4-4-4-4-4-4-4-4-4------------------
e-2-2-2-0-2-0--------2-2-2-0-2-0-2-2-2------------------


CHORUS:
Guitar A
But now...
e------------------------------------------------------
b------------------------------------------------------
g---7-9----------------------------7-9--6-7-9----------
d---7-9--4-4-4-4-4-4-4-4-4-4-4-4---7-9--6-7-9----------
a---5-7--4-4-4-4-4-4-4-4-4-4-4-4---5-7--4-5-7----------
e--------2-2-2-0-2-0-2-2-2-0-2-0-----------------------

Guitar B
But now...
e---------------------------------------------
b---------------------------------------------
g--11--11--11--11---11--11--11----------------
d---------------------------------------------
a---9---9--9---9----9---9---9-----------------
e---------------------------------------------

e---------------------------------------------
b--14-12-----------19-17---------------12-14--
g------11b13------------16b17b16-11h13--------
d------------14--11---------------------------
a---------------------------------------------
e---------------------------------------------


Zillion dollar sadist
e------------------------------------------------------
b------------------------------------------------------
g------------------------------------------------------
d--4-4-4-4-4-4-4-4-4-4-4-4-4-4-4-4-4-4--4-4-4-7-7------
a--4-4-4-4-4-4-4-4-4-4-4-4-4-4-4-4-4-4--4-4-4-7-7------
e--2-2-2-0-2-0-2-2-2-0-2-0-2-2-2-0-2-0--2-2-2-5-5------



VERSE:
Guitar A(palm muted)
What do you want...
e------------------------------------------------------
b------------------------------------------------------
g--(x5)---------------(x5)--------(x5)-----------------
d---4---4-4-4----7-9---4----4-4-4--4---4-4-2-----------
a---4---4-4-4----7-9---4----4-4-4--4---4-4-2-----------
e---2---0-2-0----5-7---2----0-2-0--2---0-2-0-----------

                            ...for free
e------------------------------------------------------
b------------------------------------------------------
g--(x5)---------------(x5)--------(x5)-(not muted)-----
d---4---4-4-4----7-9---4----4-4-4--4----7-7------------
a---4---4-4-4----7-9---4----4-4-4--4----7-7------------
e---2---0-2-0----5-7---2----0-2-0--2----5-5------------

I tell you what you need...
e------------------------------------------------------
b------------------------------------------------------
g--(x5)---------------(x5)--------(x5)-----------------
d---4---4-4-4----7-9---4----4-4-4--4---4-4-2-----------
a---4---4-4-4----7-9---4----4-4-4--4---4-4-2-----------
e---2---0-2-0----5-7---2----0-2-0--2---0-2-0-----------

...wanna hear you scream
e------------------------------------------------------
b------------------------------------------------------
g--(x5)---------------(x5)--------(x5)-----------------
d---4---4-4-4----7-9---4----4-4-4--4----7-7------------
a---4---4-4-4----7-9---4----4-4-4--4----7-7------------
e---2---0-2-0----5-7---2----0-2-0--2----5-5------------


CHORUS:
Guitar A
'Cos now...
e------------------------------------------------------
b------------------------------------------------------
g---7-9----------------------------7-9--6-7-9----------
d---7-9--4-4-4-4-4-4-4-4-4-4-4-4---7-9--6-7-9----------
a---5-7--4-4-4-4-4-4-4-4-4-4-4-4---5-7--4-5-7----------
e--------2-2-2-0-2-0-2-2-2-0-2-0-----------------------
[ Tab from: http://www.guitartabs.cc/tabs/t/turbonegro/zillion_dollar_sadist_tab.html ]
Guitar B
'Cos now...
e------------------------------------------------
b------------------------------------------------
g--11--11--11--11---11--11--11-------------------
d------------------------------------------------
a---9---9--9---9----9---9---9--------------------
e------------------------------------------------

e------------------------------------------------
b---14-12-------------19-17---------------12-14--
g--------11b13b11-----------16b17b16-11h13-------
d----------------14--11--------------------------
a------------------------------------------------
e------------------------------------------------



Zillion dollar sadist
e-------------------------------------------------------
b-------------------------------------------------------
g-------------------------------------------------------
d--4-4-4-4-4-4-4-4-4-4-4-4-4-4-4-4-4-4--4-4-4-7-7-------
a--4-4-4-4-4-4-4-4-4-4-4-4-4-4-4-4-4-4--4-4-4-7-7-------
e--2-2-2-0-2-0-2-2-2-0-2-0-2-2-2-0-2-0--2-2-2-5-5-------


SOLO-PART:
Guitar A
Well come on...
e------------------------------------------------------
b------------------------------------------------------
g--------------7-7-9-9---------------------------------
d--4-4-4-4-4-4-7-7-9-9--4-4-4-4-4-4-4-4-4-4-4-4--------
a--4-4-4-4-4-4-5-5-7-9--4-4-4-4-4-4-4-4-4-4-4-4--------
e--2-2-2-0-2-0----------2-2-2-0-2-0-2-2-2-0-2-0--------

e------------------------------------------------------
b------------------------------------------------------
g--------------7-7-9-9---------------------------------
d--4-4-4-4-4-4-7-7-9-9--4-4-4-4-4-4-4-4-4--7-7---------
a--4-4-4-4-4-4-5-5-7-9--4-4-4-4-4-4-4-4-4--7-7---------
e--2-2-2-0-2-0----------2-2-2-0-2-0-2-2-2--5-5---------

e------------------------------------------------------
b------------------------------------------------------
g--------------7-7-9-9---------------------------------
d--4-4-4-4-4-4-7-7-9-9--4-4-4-4-4-4-4-4-4-4-4-4--------
a--4-4-4-4-4-4-5-5-7-9--4-4-4-4-4-4-4-4-4-4-4-4--------
e--2-2-2-0-2-0----------2-2-2-0-2-0-2-2-2-0-2-0--------

e------------------------------------------------------
b------------------------------------------------------
g--------------7-7-9-9---------------------------------
d--4-4-4-4-4-4-7-7-9-9--4-4-4-4-4-4-4-4-4-4-4-4--------
a--4-4-4-4-4-4-5-5-7-9--4-4-4-4-4-4-4-4-4-4-4-4--------
e--2-2-2-0-2-0----------2-2-2-0-2-0-2-2-2-0-2-0--------

Solo-guitar
Well come on...
e---------------------------------------------------------------
b---------------------------------------------------------------
g------6-----9--------------------------------------------------
d--9-9---9-7---7---4-2--9-7-6-----------------7----9h11-9p7---7-
a-----------------------------7-6---------7-9---9-----------9---
e---------------------------------7-4-7-9-----------------------


e-------------------------------------------------------
b----10-10----12-12----10-10----12----10h1210-----------
g-11-------11-------11-------11----11---------11--------
d-------------------------------------------------------
a-------------------------------------------------------
e-------------------------------------------------------

    (  x4       )
e----------------------------------------------------------------
b----14-------------14---10-9------------------------------------
g----14p11--------------------11-8b9b8--6------------------------
d---------14p11--------------------------9-7-6---------------7---
a----------------------------------------------7-6--------7-9--9-
e--------------------------------------------------7-4-7h9-------

e-------------------------------------
b-------------------------------------
g-------------------------------------
d------6b7b6---------6b7b6------------
a---------------9-7--------7---9------
e----------------------------9--------

CHORUS:
Guitar A
'Cos now...
e------------------------------------------------------
b------------------------------------------------------
g---7-9----------------------------7-9--6-7-9----------
d---7-9--4-4-4-4-4-4-4-4-4-4-4-4---7-9--6-7-9----------
a---5-7--4-4-4-4-4-4-4-4-4-4-4-4---5-7--4-5-7----------
e--------2-2-2-0-2-0-2-2-2-0-2-0-----------------------

Guitar B
'Cos now...
e-----------------------------------------------
b-----------------------------------------------
g-----------6-----------------------------------
d-11----------7-9h11-9p7---7--9-9---------------
a-------7-9--------------9----------------------
e--9-7h9----------------------------------------

e-----------------------------------------------
b--14-12-------------19-17---------------12-14--
g-------11b13-------------16b17b16-11h13--------
d-------------14-11-----------------------------
a-----------------------------------------------
e-----------------------------------------------



This is played four times.
Take it to the bridge...
e------------------------------------------------------
b------------------------------------------------------
g--11-11-11-11-11-11-11--11-9--------------------------
d--11-11-11-11-11-11-11--11-9--------------------------
a---9--9--9--9--9--9--9---9-7--------------------------
e------------------------------------------------------


While this is being played the other guitar plays fractions of the solo,
but I didn't bother writing it down.         ||
                                           \  /
Do anything you wanna do...                 \/ 
e------------------------------------------------------
b------------------------------------------------------
g--11-11-11-11-11-11-11-----9--------------------------
d--11-11-11-11-11-11-11--11-9--------------------------
a---9--9--9--9--9--9--9--11-7--------------------------
e-------------------------9----------------------------
Comments