Turbonegro - Sell Your Body To The Night Chords & Tabs

 

Sell Your Body To The Night Chords & Tabs

Turbonegro Chords & Tabs

Version: 1 Type: Tab 0 ratings
1 star 2 stars 3 stars 4 stars 5 stars
comments

Sell Your Body To The Night Tab

            Turbonegro - Sell Your Body 
            (guitar tab) 

Sell You Body
Performed by: Turbonegro
Tabbed by joshua immanuel

yo this is my second tabs maybe i am the first one who tabs in here from indonesia
i have a band named welfare problems my guitar player named sandi teached this song
ah fuck it...  "we're on a mission to destroy" turbojugendindo
Regular tuning(eBGDAE)

Main riff:

|---------------------------------------------|
|---------------------------------------------|
|----------------------------------7^-7-5^--0-|
|---------5-----7-------------5---------------|
|-----5h7---5h7---5/7-----5h7---5-------------|
|-0-0-----------------5-5---------------------|

Im not 100% sure that the last part of the riff is right, so if youve figured out
a better way to play it, plz send it to me

Pre-chorus:

|------------------------------|
|------------------------------|
|-------5-------------------5--|
|-2-5-7-5-------------2-5-7-5--|
|-2-5-7-3-------------2-5-7-3--|
|-0-3-5---------------0-3-5----|
[ Tab from: http://www.guitartabs.cc/tabs/t/turbonegro/sell_your_body_to_the_night_tab.html ]
|-----------------------------------------|
|-----------------------------------------|
|-------5--5-5-5-5-5-5-5-7-7-7-7-7-7-7-7--|
|-2-5-7-5--5-5-5-5-5-5-5-5-5-5-5-5-5-5-5--|
|-2-5-7-3--3-3-3-3-3-3-3-5-5-5-5-5-5-5-5--|
|-0-3-5-----------------------------------|

Im not quite sure about the amount of times you play the G5 and the A5 but listen 
to the song and youll get it right

Chorus:

|--------------------|
|--------------------|
|-9--9--7-9-12--12---|
|-9--9--7-9-12--12---|
|-7--7--5-7-10--10---|
|--------------------|

Its not the whole chorus, the second part is almost impossible to tab at least
for me. But than again, if you have figured it out, send it to me so I can correct this.

Bridge: (Played after second chorus):

|---------------------------------------------------------------------------------
|---------------------------------------------------------------------------------
|-9-9-9--9-9-9-9--9-9--12-12-12--12-12-12-12--12-12--11-11-11--11-11-11-11--11-11-
|-9-9-9--9-9-9-9--9-9--12-12-12--12-12-12-12--12-12--11-11-11--11-11-11-11--11-11-
|-7-7-7--7-7-7-7--7-7--10-10-10--10-10-10-10--10-10--9--9--9---9--9--9--9---9--9--
|---------------------------------------------------------------------------------

------------------------------|    |---------|
------------------------------|    |---------|
-14-14-14--14-14-14-14--14-14-|    |-5-5-5-4-|
-14-14-14--14-14-14-14--14-14-| x6 |-5-5-5-4-| x3
-12-12-12--12-12-12-12--12-12-|    |-3-3-3-2-|
------------------------------|    |---------|
Comments