Turbonegro - Rendezvous With Anus Chords & Tabs

 

Rendezvous With Anus Chords & Tabs

Turbonegro Chords & Tabs

Version: 2 Type: Tab 0 ratings
1 star 2 stars 3 stars 4 stars 5 stars
comments

Rendezvous With Anus Tab

---- Turbonegro ---- 
Rendezvous with anus
Tune: Standard
by:mark8@jippii.fi

p=pull off
h=hammer on
bf=full bend
()=palm mute
/=slide up

First there is guitar1 1-79 and after that guitar2 1-79 
Numbers shows what guitar 1&2 play at the same time

  1                           2                            3                            4 
e||---------------------------|----------------------------|----------------------------|---------------------------|
B||---------------------------|----------------------------|----------------------------|---------------------------|
G||---------------------------|----------------------------|----------------------------|---------------------------|
D||---------------------------|----------------------------|----------------------------|---------------------------|
A||2--(2)-(2)-(2)-(2)-(2)-(2)-|-5--(5)-(5)-(5)-(5)-(5)-(5)-|-8--(8)-(8)-(8)-(8)-(8)-(8)-|-5--(5)-(5)-(5)-(5)-(5)-(5)|
E||0--(0)-(0)-(0)-(0)-(0)-(0)-|-3--(3)-(3)-(3)-(3)-(3)-(3)-|-6--(6)-(6)-(6)-(6)-(6)-(6)-|-3--(3)-(3)-(3)-(3)-(3)-(3)|

 5                              6                              7
 |------------------------------|------------------------------|------------------------------|
 |------------------------------|------------------------------|------------------------------|
 |------------------------------|------------------------------|------------------------------|
 |------------------------------|------------------------------|------------------------------|
 |--2--(2)-(2)-(2)-(2)-(2)-(2)--|--5--(5)-(5)-(5)-(5)-(5)-(5)--|--8--(8)-(8)-(8)-(8)-(8)-(8)--|
 |--0--(0)-(0)-(0)-(0)-(0)-(0)--|--3--(3)-(3)-(3)-(3)-(3)-(3)--|--6--(6)-(6)-(6)-(6)-(6)-(6)--|

 8                                          9                              10
 |------------------------------------------|-------------------------------|-------------------------------------|
 |------------------------------------------|-------------------------------|-------------------------------------|
 |------------------------------------------|-------------------------------|-------------------------------------|
 |------------------------------------------|-------------------------------|-------------------------------------|
 |--7---7--7--7---7--7--7---7--7--7---7--7--|--7---7--7--7---7--7--7-----5--|--7---7---7---7---10---10---10---10--|
 |--5---5--5--5---5--5--5---5--5--5---5--5--|--5---5--5--5---5--5--5-----3--|--5---5---5---5----8----8----8----8--|

11                                12                                    13
 |---------------------------------|-------------------------------------|---------------------------------|
 |---------------------------------|-------------------------------------|---------------------------------|
 |---------------------------------|-------------------------------------|---------------------------------|
 |---------------------------------|-------------------------------------|---------------------------------|
 |--3---3---3---3---5---5---5---5--|--7---7---7---7---10---10---10---10--|--3---3---3---3---5---5---5---5--|
 |--1---1---1---1---3---3---3---3--|--5---5---5---5----8----8----8----8--|--1---1---1---1---3---3---3---3--|

14                                    15                                16
 |-------------------------------------|---------------------------------|-----------------------------------|
 |-------------------------------------|---------------------------------|-----------------------------------|
 |-------------------------------------|---------------------------------|-----------------------------------|
 |-------------------------------------|---------------------------------|-----------------------------------|
 |--7---7---7---7---10---10---10---10--|--3---3---3---3---5---5---5---5--|--7---7---7---7---10---10---10---10|
 |--5---5---5---5----8----8----8----8--|--1---1---1---1---3---3---3---3--|--5---5---5---5----8----8----8----8|

17                                18                                    19 
 |---------------------------------|-------------------------------------|---------------------------------|
 |---------------------------------|-------------------------------------|---------------------------------|
 |---------------------------------|-------------------------------------|---------------------------------|
 |---------------------------------|-------------------------------------|---------------------------------|
 |--3---3---3---3---5---5---5---5--|--7---7---7---7---10---10---10---10--|--3---3---3---3---5---5---5---5--|
 |--1---1---1---1---3---3---3---3--|--5---5---5---5----8----8----8----8--|--1---1---1---1---3---3---3---3--|

20                                    21                                22 
 |-------------------------------------|---------------------------------|-----------------------------------|
 |-------------------------------------|---------------------------------|-----------------------------------|
 |-------------------------------------|---------------------------------|-----------------------------------|
 |-------------------------------------|---------------------------------|-----------------------------------|
 |--7---7---7---7---10---10---10---10--|--3---3---3---3---5---5---5---5--|--7---7---7---7---10---10---10---10|
 |--5---5---5---5----8----8----8----8--|--1---1---1---1---3---3---3---3--|--5---5---5---5----8----8----8----8|
23                                24                                    25       
 |---------------------------------|-------------------------------------|---------------------------------|
 |---------------------------------|-------------------------------------|---------------------------------|
 |---------------------------------|-------------------------------------|---------------------------------|
 |---------------------------------|-------------------------------------|---------------------------------|
 |--3---3---3---3---5---5---5---5--|--7---7---7---7---10---10---10---10--|--3---3---3---3---5---5---5---5--|
 |--1---1---1---1---3---3---3---3--|--5---5---5---5----8----8----8----8--|--1---1---1---1---3---3---3---3--|

26                                    27                                28 
 |-------------------------------------|---------------------------------|-------------------------------------|
 |-------------------------------------|---------------------------------|-------------------------------------|
 |-------------------------------------|---------------------------------|-------------------------------------|
 |-------------------------------------|---------------------------------|-------------------------------------|
 |--7---7---7---7---10---10---10---10--|--3---3---3---3---5---5---5---5--|--7---7---7---7---10---10---10---10--|
 |--5---5---5---5----8----8----8----8--|--1---1---1---1---3---3---3---3--|--5---5---5---5----8----8----8----8--|

29                                30                                       31
 |---------------------------------|----------------------------------------|-----------------------------------|
 |---------------------------------|----------------------------------------|-----------------------------------|
 |---------------------------------|----------------------------------------|-----------------------------------|
 |---------------------------------|----------------------------------------|-----------------------------------|
 |--3---3---3---3---5---5---5---5--|--(7)-(7)-(7)--(7)-(10)-(10)-(10)-(10)--|--(3)-(3)-(3)-(3)-(5)-(5)-(5)-(5)--|
 |--1---1---1---1---3---3---3---3--|--(5)-(5)-(5)--(5)--(8)--(8)--(8)--(8)--|--(1)-(1)-(1)-(1)-(3)-(3)-(3)-(3)--|

32                                      33                                  34  
 |---------------------------------------|-----------------------------------|------------------------------------|
 |---------------------------------------|-----------------------------------|------------------------------------|
 |---------------------------------------|-----------------------------------|------------------------------------|
 |---------------------------------------|-----------------------------------|------------------------------------|
 |--(7)-(7)-(7)-(7)-(10)-(10)-(10)-(10)--|--(3)-(3)-(3)-(3)-(5)-(5)-(5)-(5)--|-(7)-(7)-(7)-(7)-(10)-(10)-(10)-(10)|
 |--(5)-(5)-(5)-(5)--(8)--(8)--(8)--(8)--|--(1)-(1)-(1)-(1)-(3)-(3)-(3)-(3)--|-(5)-(5)-(5)-(5)--(8)--(8)--(8)--(8)|

35
 |-----------------------------------|
 |-----------------------------------|
 |-----------------------------------|
 |-----------------------------------|
 |--(3)-(3)-(3)-(3)-(5)-(5)-(5)-(5)--|
 |--(1)-(1)-(1)-(1)-(3)-(3)-(3)-(3)--|

36                                    37                                38 
 |-------------------------------------|---------------------------------|-------------------------------------|
 |-------------------------------------|---------------------------------|-------------------------------------|
 |-------------------------------------|---------------------------------|-------------------------------------|
 |-------------------------------------|---------------------------------|-------------------------------------|
 |--7---7---7---7---10---10---10---10--|--3---3---3---3---5---5---5---5--|--7---7---7---7---10---10---10---10--|
 |--5---5---5---5----8----8----8----8--|--1---1---1---1---3---3---3---3--|--5---5---5---5----8----8----8----8--|

39                                40                                    41   
 |---------------------------------|-------------------------------------|---------------------------------|
 |---------------------------------|-------------------------------------|---------------------------------|
 |---------------------------------|-------------------------------------|---------------------------------|
 |---------------------------------|-------------------------------------|---------------------------------|
 |--3---3---3---3---5---5---5---5--|--7---7---7---7---10---10---10---10--|--3---3---3---3---5---5---5---5--|
 |--1---1---1---1---3---3---3---3--|--5---5---5---5----8----8----8----8--|--1---1---1---1---3---3---3---3--|

42                                    43                                44
 |-------------------------------------|---------------------------------|-------------------------------------|
 |-------------------------------------|---------------------------------|-------------------------------------|
 |-------------------------------------|---------------------------------|-------------------------------------|
 |-------------------------------------|---------------------------------|-------------------------------------|
 |--7---7---7---7---10---10---10---10--|--3---3---3---3---5---5---5---5--|--7---7---7---7---10---10---10---10--|
 |--5---5---5---5----8----8----8----8--|--1---1---1---1---3---3---3---3--|--5---5---5---5----8----8----8----8--|

45                                46                                    47
 |---------------------------------|-------------------------------------|---------------------------------|
 |---------------------------------|-------------------------------------|---------------------------------|
 |---------------------------------|-------------------------------------|---------------------------------|
 |---------------------------------|-------------------------------------|---------------------------------|
 |--3---3---3---3---5---5---5---5--|--7---7---7---7---10---10---10---10--|--3---3---3---3---5---5---5---5--|
 |--1---1---1---1---3---3---3---3--|--5---5---5---5----8----8----8----8--|--1---1---1---1---3---3---3---3--|

48                                    49                                50
 |-------------------------------------|---------------------------------|---------------------------------|
 |-------------------------------------|---------------------------------|---------------------------------|
 |-------------------------------------|---------------------------------|---------------------------------|
 |-------------------------------------|---------------------------------|---------------------------------|
 |--7---7---7---7---10---10---10---10--|--3---3---3---3---5---5---5---5--|--4---4---4---4---4---4---4---4--|
 |--5---5---5---5----8----8----8----8--|--1---1---1---1---3---3---3---3--|--2---2---2---2---2---2---2---2--|

51                                52                                53 
 |---------------------------------|---------------------------------|---------------------------------|
 |---------------------------------|---------------------------------|---------------------------------|
 |---------------------------------|---------------------------------|---------------------------------|
 |---------------------------------|---------------------------------|---------------------------------|
 |--4---4---4---4---4---4---4---4--|--4---4---4---4---4---4---4---4--|--4---4---4---4---4---4---4---4--|
 |--2---2---2---2---2---2---2---2--|--2---2---2---2---2---2---2---2--|--2---2---2---2---2---2---2---2--|


54                                55                                56 
 |---------------------------------|---------------------------------|---------------------------------|
 |---------------------------------|---------------------------------|---------------------------------|
 |---------------------------------|---------------------------------|---------------------------------|
 |---------------------------------|---------------------------------|---------------------------------|
 |--4---4---4---4---4---4---4---4--|--4---4---4---4---4---4---4---4--|--4---4---4---4---4---4---4---4--|
 |--2---2---2---2---2---2---2---2--|--2---2---2---2---2---2---2---2--|--2---2---2---2---2---2---2---2--|

57                                58                                    59
 |---------------------------------|-------------------------------------|---------------------------------|
 |---------------------------------|-------------------------------------|---------------------------------|
 |---------------------------------|-------------------------------------|---------------------------------|
 |---------------------------------|-------------------------------------|---------------------------------|
 |--4---4---4---4---4---4---4---4--|--7---7---7---7---10---10---10---10--|--3---3---3---3---5---5---5---5--|
 |--2---2---2---2---2---2---2---2--|--5---5---5---5----8----8----8----8--|--1---1---1---1---3---3---3---3--|

60                                    61                                62  
 |-------------------------------------|---------------------------------|-------------------------------------|
 |-------------------------------------|---------------------------------|-------------------------------------|
 |-------------------------------------|---------------------------------|-------------------------------------|
 |-------------------------------------|---------------------------------|-------------------------------------|
 |--7---7---7---7---10---10---10---10--|--3---3---3---3---5---5---5---5--|--7---7---7---7---10---10---10---10--|
 |--5---5---5---5----8----8----8----8--|--1---1---1---1---3---3---3---3--|--5---5---5---5----8----8----8----8--|

63                                64                                    65
 |---------------------------------|-------------------------------------|---------------------------------|
 |---------------------------------|-------------------------------------|---------------------------------|
 |---------------------------------|-------------------------------------|---------------------------------|
 |---------------------------------|-------------------------------------|---------------------------------|
 |--3---3---3---3---5---5---5---5--|--7---7---7---7---10---10---10---10--|--3---3---3---3---5---5---5---5--|
 |--1---1---1---1---3---3---3---3--|--5---5---5---5----8----8----8----8--|--1---1---1---1---3---3---3---3--|

66                                67                                68
 |---------------------------------|---------------------------------|---------------------------------|
 |---------------------------------|---------------------------------|---------------------------------|
 |---------------------------------|---------------------------------|---------------------------------|
 |---------------------------------|---------------------------------|---------------------------------|
 |--5---5---5---5---5---5---5---5--|--7---7---7---7---7---7---7---7--|--3---3---3---3---3---3---3---3--|
 |--3---3---3---3---3---3---3---3--|--5---5---5---5---5---5---5---5--|--1---1---1---1---1---1---1---1--|

69                                70                                71
 |---------------------------------|---------------------------------|---------------------------------|
 |---------------------------------|---------------------------------|---------------------------------|
 |---------------------------------|---------------------------------|---------------------------------|
 |---------------------------------|---------------------------------|---------------------------------|
 |--3---3---3---3---3---3---3---3--|--5---5---5---5---5---5---5---5--|--7---7---7---7---7---7---7---7--|
 |--1---1---1---1---1---1---1---1--|--3---3---3---3---3---3---3---3--|--5---5---5---5---5---5---5---5--|
[ Tab from: http://www.guitartabs.cc/tabs/t/turbonegro/rendezvous_with_anus_tab_ver_2.html ]
72                                73                                74 
 |---------------------------------|---------------------------------|-------------------------------------|
 |---------------------------------|---------------------------------|-------------------------------------|
 |---------------------------------|---------------------------------|-------------------------------------|
 |---------------------------------|---------------------------------|-------------------------------------|
 |--3---3---3---3---3---3---3---3--|--3---3---3---3---5---5---5---5--|--7---7---7---7---10---10---10---10--|
 |--1---1---1---1---1---1---1---1--|--1---1---1---1---3---3---3---3--|--5---5---5---5----8----8----8----8--|

75                                76                                    77 
 |---------------------------------|-------------------------------------|---------------------------------|
 |---------------------------------|-------------------------------------|---------------------------------|
 |---------------------------------|-------------------------------------|---------------------------------|
 |---------------------------------|-------------------------------------|---------------------------------|
 |--3---3---3---3---5---5---5---5--|--7---7---7---7---10---10---10---10--|--3---3---3---3---5---5---5---5--|
 |--1---1---1---1---3---3---3---3--|--5---5---5---5----8----8----8----8--|--1---1---1---1---3---3---3---3--|

78                 79 
 |------------------|-------||
 |------------------|-------||
 |------------------|-------||
 |------------------|-------||
 |--7---7--------7--|--7----||
 |--5---5--------5--|--5----||

And now guitar2 (I donīt know is the solo perfectly right) 

 1    2    4    5      6       7       8                                          9                              
||----|----|----|------|-------|-------|------------------------------------------|-------------------------------|
||----|----|----|------|-------|-------|------------------------------------------|-------------------------------|
||----|----|----|------|-------|-------|------------------------------------------|-------------------------------|
||----|----|----|--9---|--12---|--15---|------------------------------------------|-------------------------------|
||----|----|----|--7---|--10---|--13---|--7---7--7--7---7--7--7---7--7--7---7--7--|--7---7--7--7---7--7--7-----5--|
||----|----|----|--0---|---0---|---0---|--5---5--5--5---5--5--5---5--5--5---5--5--|--5---5--5--5---5--5--5-----3--|

10                                    11                                12            
 |-------------------------------------|---------------------------------|-------------------------------------|
 |-------------------------------------|---------------------------------|-------------------------------------|
 |-------------------------------------|---------------------------------|-------------------------------------|
 |-------------------------------------|---------------------------------|-------------------------------------|
 |--7---7---7---7---10---10---10---10--|--3---3---3---3---5---5---5---5--|--7---7---7---7---10---10---10---10--|
 |--5---5---5---5----8----8----8----8--|--1---1---1---1---3---3---3---3--|--5---5---5---5----8----8----8----8--|

13                                14                                    15  
 |---------------------------------|-------------------------------------|---------------------------------|
 |---------------------------------|-------------------------------------|---------------------------------|
 |---------------------------------|-------------------------------------|---------------------------------|
 |---------------------------------|-------------------------------------|---------------------------------|
 |--3---3---3---3---5---5---5---5--|--7---7---7---7---10---10---10---10--|--3---3---3---3---5---5---5---5--|
 |--1---1---1---1---3---3---3---3--|--5---5---5---5----8----8----8----8--|--1---1---1---1---3---3---3---3--|

16                  17              18                                    19
 |-------------------|---------------|-------------------------------------|------------------------|
 |--10---10/13---13--|--6---6/8---8--|-------------------------------------|------------------------|
 |---9----9/12---12--|--5---5/7---7--|-------------------------------------|------------------------|
 |-------------------|---------------|--12----12---12---12---12---12---12--|--14---14--14-----------|
 |-------------------|---------------|--10----10---10---10---10---10---10--|--12---12--12--14---15--|
 |-------------------|---------------|-------------------------------------|------------------------|

20                                     21                                       22 
 |--------------------------------------|---------------------------------------|----------------------------------|
 |--------------------------------------|---------------------------------------|----------------------------------|
 |--------------------------------------|---------------------------------------|----------------------------------|
 |--------------------------------------|---------------------------------------|-12----12---12---12---12---12---12|
 |10---10---10---10---10---10---10---10-|-10---10---10---10---10---10---10---10-|-10----10---10---10---10---10---10|
 |-8----8----8----8----8----8----8----8-|--8----8----8----8----8----8----8----8-|----------------------------------|

23                       24                                        25 
 |------------------------|-----------------------------------------|----------------------------------------------|
 |------------------------|-----------------------------------------|----------------------------------------------|
 |------------------------|-----------------------------------------|----------------------------------------------|
 |--14---14--14-----------|-----------------------------------------|----------------------------------------------|
 |--12---12--12--14---15--|--10---10---10---10---10---10---10---10--|--10---10---10---10---10---12---12---12---12--|
 |------------------------|---8----8----8----8----8----8----8----8--|---8----8----8----8----8---10---10---10---10--|

26                                    27                                28
 |-------------------------------------|---------------------------------|-------------------------------------|
 |-------------------------------------|---------------------------------|-------------------------------------|
 |-------------------------------------|---------------------------------|-------------------------------------|
 |-------------------------------------|---------------------------------|-------------------------------------|
 |--7---7---7---7---10---10---10---10--|--3---3---3---3---5---5---5---5--|--7---7---7---7---10---10---10---10--|
 |--5---5---5---5----8----8----8----8--|--1---1---1---1---3---3---3---3--|--5---5---5---5----8----8----8----8--|

29                                30                                     31               
 |---------------------------------|--------------------------------------|----------------------------------|
 |---------------------------------|--------------------------------------|----------------------------------|
 |---------------------------------|--------------------------------------|----------------------------------|
 |---------------------------------|--------------------------------------|----------------------------------|
 |--3---3---3---3---5---5---5---5--|--7--(7)--7--(7)--10--(10)--10--(10)--|--3--(3)--3--(3)--5--(5)--5--(5)--|
 |--1---1---1---1---3---3---3---3--|--5--(5)--5--(5)---8---(8)---8---(8)--|--1--(1)--1--(1)--3--(3)--3--(3)--|

32                                     33                                 34 
 |--------------------------------------|----------------------------------|--------------------------------------|
 |--------------------------------------|----------------------------------|--------------------------------------|
 |--------------------------------------|----------------------------------|--------------------------------------|
 |--------------------------------------|----------------------------------|--------------------------------------|
 |--7--(7)--7--(7)--10--(10)--10--(10)--|--3--(3)--3--(3)--5--(5)--5--(5)--|--7--(7)--7--(7)--10--(10)--10--(10)--|
 |--5--(5)--5--(5)---8---(8)---8---(8)--|--1--(1)--1--(1)--3--(3)--3--(3)--|--5--(5)--5--(5)---8---(8)---8---(8)--|

35                                 36                  37              38 
 |----------------------------------|-------------------|---------------|-------------------------------------|
 |----------------------------------|--10---10s13---13--|--6---6s8---8--|-------------------------------------|
 |----------------------------------|---9----9s12---12--|--5---5s7---7--|-------------------------------------|
 |----------------------------------|-------------------|---------------|--12----12---12---12---12---12---12--|
 |--3--(3)--3--(3)--5--(5)--5--(5)--|-------------------|---------------|--10----10---10---10---10---10---10--|
 |--1--(1)--1--(1)--3--(3)--3--(3)--|-------------------|---------------|-------------------------------------|

39                       40                                        41
 |------------------------|-----------------------------------------|-----------------------------------------|
 |------------------------|-----------------------------------------|-----------------------------------------|
 |------------------------|-----------------------------------------|-----------------------------------------|
 |--14---14--14-----------|--10---10---10---10---10---10---10---10--|--10---10---10---10---10---10---10---10--|
 |--12---12--12--14---15--|---8----8----8----8----8----8----8----8--|---8----8----8----8----8----8----8----8--|
 |------------------------|-----------------------------------------|-----------------------------------------|

42                                    43                       44
 |-------------------------------------|------------------------|-----------------------------------------|
 |-------------------------------------|------------------------|-----------------------------------------|
 |-------------------------------------|------------------------|-----------------------------------------|
 |--12----12---12---12---12---12---12--|--14---14--14-----------|--10---10---10---10---10---10---10---10--|
 |--10----10---10---10---10---10---10--|--12---12--12--14---15--|---8----8----8----8----8----8----8----8--|
 |-------------------------------------|------------------------|-----------------------------------------|

45                                           46                                    47
 |--------------------------------------------|-------------------------------------|-------------------------------|
 |--------------------------------------------|-------------------------------------|-------------------------------|
 |--------------------------------------------|-------------------------------------|-------------------------------|
 |10---10---10---10---10---12---12---12---12--|-------------------------------------|-------------------------------|
 |-8----8----8----8----8---10---10---10---10--|--7---7---7---7---10---10---10---10--|--3---3---3---3---5---5---5---5|
 |--------------------------------------------|--5---5---5---5----8----8----8----8--|--1---1---1---1---3---3---3---3|

48                                 49                               50  51                   52
 |----------------------------------|--------------------------------|---|--------------------|-------14p12|
 |----------------------------------|--------------------------------|---|--------------------|------------|
 |----------------------------------|--------------------------------|---|-2---------6p4------|------------|
 |----------------------------------|--------------------------------|---|-2---------------4h-|-7----------|
 |7---7---7---7---10---10---10---10-|-3---3---3---3---5---5---5---5--|---|--------------------|------------|
 |5---5---5---5----8----8----8----8-|-1---1---1---1---3---3---3---3--|-2-|--------------------|------------|

53              54                                         55 
 |---12bf--------|--14p12----12----14p12----12----14p12-----|--12----14p12----12----14p12----12----14--|
 |---------------|--------14----12-------14----12-------14--|-----12-------14----12-------14----12-----|
 |---------------|------------------------------------------|------------------------------------------|
 |---------------|------------------------------------------|------------------------------------------|
 |---------------|------------------------------------------|------------------------------------------|
 |---------------|------------------------------------------|------------------------------------------|

56                                                  57                                 58  
 |--17p14p12h17p14p12h17p14p12h17p14p12h17p14p12h17--|--17bf--17bf--17bf---19p14p12h14--|---12bf--------|
 |---------------------------------------------------|----------------------------------|---------------|
 |---------------------------------------------------|----------------------------------|---------------|
 |---------------------------------------------------|----------------------------------|---------------|
 |---------------------------------------------------|----------------------------------|---------------|
 |---------------------------------------------------|----------------------------------|---------------|

59                                60                                    61   
 |---------------------------------|-------------------------------------|---------------------------------|
 |---------------------------------|-------------------------------------|---------------------------------|
 |---------------------------------|-------------------------------------|---------------------------------|
 |---------------------------------|-------------------------------------|---------------------------------|
 |--3---3---3---3---5---5---5---5--|--7---7---7---7---10---10---10---10--|--3---3---3---3---5---5---5---5--|
 |--1---1---1---1---3---3---3---3--|--5---5---5---5----8----8----8----8--|--1---1---1---1---3---3---3---3--|

62                                    63                                64                  65  
 |-------------------------------------|---------------------------------|-------------------|---------------|
 |-------------------------------------|---------------------------------|--10---10s13---13--|--6---6s8---8--|
 |-------------------------------------|---------------------------------|---9----9s12---12--|--5---5s7---7--|
 |-------------------------------------|---------------------------------|-------------------|---------------|
 |--7---7---7---7---10---10---10---10--|--3---3---3---3---5---5---5---5--|-------------------|---------------|
 |--5---5---5---5----8----8----8----8--|--1---1---1---1---3---3---3---3--|-------------------|---------------|

66                                    67                       68
 |-------------------------------------|------------------------|-----------------------------------------|
 |-------------------------------------|------------------------|-----------------------------------------|
 |-------------------------------------|------------------------|-----------------------------------------|
 |--12----12---12---12---12---12---12--|--14---14--14-----------|--10---10---10---10---10---10---10---10--|
 |--10----10---10---10---10---10---10--|--12---12--12--14---15--|---8----8----8----8----8----8----8----8--|
 |-------------------------------------|------------------------|-----------------------------------------|

69                                        70                                    71
 |-----------------------------------------|-------------------------------------|------------------------|
 |-----------------------------------------|-------------------------------------|------------------------|
 |-----------------------------------------|-------------------------------------|------------------------|
 |--10---10---10---10---10---10---10---10--|--12----12---12---12---12---12---12--|--14---14--14-----------|
 |---8----8----8----8----8----8----8----8--|--10----10---10---10---10---10---10--|--12---12--12--14---15--|
 |-----------------------------------------|-------------------------------------|------------------------|

72                                     73                                          74 
 |--------------------------------------|-------------------------------------------|---------------------------------|
 |--------------------------------------|-------------------------------------------|---------------------------------|
 |--------------------------------------|-------------------------------------------|---------------------------------|
 |10---10---10---10---10---10---10---10-|10---10---10---10---10---12---12---12---12-|---------------------------------|
 |-8----8----8----8----8----8----8----8-|-8----8----8----8----8---10---10---10---10-|7---7---7---7---10---10---10---10|
 |--------------------------------------|-------------------------------------------|5---5---5---5----8----8----8----8|

75                                76                                    77
 |---------------------------------|-------------------------------------|---------------------------------|
 |---------------------------------|-------------------------------------|---------------------------------|
 |---------------------------------|-------------------------------------|---------------------------------|
 |---------------------------------|-------------------------------------|---------------------------------|
 |--3---3---3---3---5---5---5---5--|--7---7---7---7---10---10---10---10--|--3---3---3---3---5---5---5---5--|
 |--1---1---1---1---3---3---3---3--|--5---5---5---5----8----8----8----8--|--1---1---1---1---3---3---3---3--|

78                    79
 |---------------------|--------||
 |---------------------|--------||
 |--14---14--------14--|--14----||
 |--14---14--------14--|--14----||
 |--12---12--------12--|--12----||
 |---------------------|--------||
Comments