Turbonegro - Midnight Nambla Chords & Tabs

 

Midnight Nambla Chords & Tabs

Turbonegro Chords & Tabs

Version: 1 Type: Bass Tab

Midnight Nambla Bass Tab

  There's really not much to this song.

 Verse
G-------------------------------------------|
D-------------------------------------------|
A-------------------8-8------10-10----------|
E--5-5-5-5-5-5-5-5-------8-8---------10-10--|
[ Tab from: http://www.guitartabs.cc/tabs/t/turbonegro/midnight_nambla_btab.html ]
 Chorus
G-------------------------------------------------------|
D-------------------------------------------------------|
A--7-7-7-7-----------8-8-8-8--7-7-7-7--7-7-7-7----------|
E-----------5-5-5-5-----------------------------5-5-5-5-|

G--------------------------|
D--------------------------|
A-8--8--8--8--10-10-10-10--|
E--------------------------|

 Outro
G----------------------------------------------------|
D----------------------------------------------------|
A----------/-10---8-8-8-----5-5-5-----8-8-8--10------|
E--5-5-5-5----------------8---------8-------------8--|

  That's pretty much all of it. Enjoy.