Turbonegro - Get It On Chords & Tabs

 

Get It On Chords & Tabs

Turbonegro Chords & Tabs

Version: 3 Type: Bass Tab

Get It On Bass Tab

[ Main Riff - Hang on the open E at the end of every sixth cycle ]


G |--------------------------------------|
D |--------------------------------------|
A |--7--7--7--7--7--------------------8--|
E |-----------------5--8--8--8--8--8-----|



  [ 1st 'hold' right before intro lead ]

G |---------------------------------------------------------------------|
D |---------------------------------------------------------------------|
A |--7--7--7--7--7--------------------8--------16-16-17-17-18-18/19-19--|
E |-----------------5--8--8--8--8--8-----0------------------------------|


  [ 2nd 'hold' right after intro lead ]

G |-----------------------------------------------------------------------------|
D |-----------------------------------------------------------------------------|
A |--7--7--7--7--7--------------------8-----0--5--7--7--0--5--7--7--0--5--7--7--|
E |-----------------5--8--8--8--8--8-----0--------------------------------------|



[ Tab from: http://www.guitartabs.cc/tabs/t/turbonegro/get_it_on_btab_ver_3.html ]
  [ Chorus : play 1st 'hold' accending fill where needed ]


G |--------------------------------------------------------------------|
D |--------------------------------------------------------------------|
A |--2--2--2--2--2--2--2--2--5--5--5--5--5--5--5--5--------------------|
E |--------------------------------------------------0--0--0--0--0--0--|





   [ Bridge : play with soft attack ]



G |--------------------------------------------------|
D |--------------------------------------------------|
A |--------------------------------------------------|
E |-0-0-0-0-0-0-0--3-3-3-3-3-3-3-3--5-5-5-5-5-5-5-5--|



  [ Bridge cont. - Play notes full. ]


G |-----------------------------------------|
D |-----------------------------------------|
A |-7--7--7--7--10--10--10--10--0--0--0--0--|
E |-----------------------------------------|


  [ Outro bass fill ]

G |------------------------------|
D |------------------------------|
A |--12--12--14--15--16--17--18--|
E |------------------------------|


turbonegro is the desteny